Black Sabbath - Sabbath Bloody Sabbath (Bassline)

Black Sabbath - Sabbath Bloody Sabbath (Bassline)

Black Sabbath



Title: Sabbath Bloody Sabbath
Album: Sabbath Bloody Sabbath
Artist: Black Sabbath
Author: 

Track 1: Geezer
 G|---------|---------|---------|---------|-------------------------------------|-------------------------------------|
 D|-%-------|-%-------|-%-------|-%-------|-------------------------------------|-------------------------------------|
 A|-%-------|-%-------|-%-------|-%-------|-2----4----4----4----4-----4----4----|-2----4----4----4----4-----4---------|
C#|---------|---------|---------|---------|-------------------------------------|--------------------------------0----|

 G|-----------3--------------5--------------|-----------------------------|-------------------------------------|
 D|------3--------------5--------------3----|-4---------------------------|-------------------------------------|
 A|-2--------------3--------------5---------|------5------5----5----5-----|-2----4----4----4----4-----4----4----|
C#|-----------------------------------------|-----------------------------|-------------------------------------|

 G|-------------------------------------|-----------3--------------5--------------|
 D|-------------------------------------|------3--------------5--------------3----|
 A|-2----4----4----4----4-----4---------|-2--------------3--------------5---------|
C#|--------------------------------0----|-----------------------------------------|

 G|-----------------------------|-------------------------------------|-------------------------------------|
 D|-4---------------------------|-------------------------------------|-------------------------------------|
 A|------5------5----5----5-----|-2----4----4----4----4-----4----4----|-2----4----4----4----4-----4---------|
C#|-----------------------------|-------------------------------------|--------------------------------0----|

 G|-----------3--------------5--------------|-----------------------------|-------------------------------------|
 D|------3--------------5--------------3----|-4---------------------------|-------------------------------------|
 A|-2--------------3--------------5---------|------5------5----5----5-----|-2----4----4----4----4-----4----4----|
C#|-----------------------------------------|-----------------------------|-------------------------------------|

 G|-------------------------------------|-----------3--------------5--------------|
 D|-------------------------------------|------3--------------5--------------3----|
 A|-2----4----4----4----4-----4---------|-2--------------3--------------5---------|
C#|--------------------------------0----|-----------------------------------------|

 G|-----------------------------|-------------------------------------|-------------------------------------|
 D|-4---------------------------|-------------------------------------|-------------------------------------|
 A|------5------5----5----5-----|-2----4----4----4----4-----4----4----|-2----4----4----4----4-----4---------|
C#|-----------------------------|-------------------------------------|--------------------------------0----|

 G|-----------3--------------5--------------|-----------------------------|---------------------------------|
 D|------3--------------5--------------3----|-4---------------------------|-5-----5---------5-----5---------|
 A|-2--------------3--------------5---------|------5------5----5----5-----|------------5---------------5----|
C#|-----------------------------------------|-----------------------------|---------------------------------|

 G|---------------------------------|---------------------------------|---------------------------------|
 D|-5-----5---------5-----5---------|-3-----3---------3-----3---------|-5-----5---------5-----5---------|
 A|------------5---------------5----|------------3---------------3----|------------5---------------5----|
C#|---------------------------------|---------------------------------|---------------------------------|

 G|---------------------------------|---------------------------------|---------------------------------|
 D|-3-----3---------3-----3---------|-5-----5---------5-----5---------|-3-----3---------3-----3---------|
 A|------------3---------------3----|------------5---------------5----|------------3---------------3----|
C#|---------------------------------|---------------------------------|---------------------------------|

 G|---------------------------------|---------------------------------|---------------------------------|
 D|-3-----3---------3-----3----5----|-5-----5---------5-----5---------|-5-----5---------5-----5---------|
 A|------------3--------------------|------------5---------------5----|------------5---------------5----|
C#|---------------------------------|---------------------------------|---------------------------------|

 G|---------------------------------|---------------------------------|---------------------------------|
 D|-3-----3---------3-----3---------|-3-----3---------3-----3----5----|-5-----5---------5-----5---------|
 A|------------3---------------3----|------------3--------------------|------------5---------------5----|
C#|---------------------------------|---------------------------------|---------------------------------|

 G|---------------------------------|-5----5----5-----------------------------|------------5----5----5---------5----|
 D|-5-----5---------5-----5---------|----------------5----5----5--------------|------5--------------------5---------|
 A|------------5---------------5----|-------------------------------5----5----|-5-----------------------------------|
C#|---------------------------------|-----------------------------------------|-------------------------------------|

 G|-------------------------------------|-------------------------------------|-----------3--------------5--------------|
 D|-------------------------------------|-------------------------------------|------3--------------5--------------3----|
 A|-2----4----4----4----4-----4----4----|-2----4----4----4----4-----4---------|-2--------------3--------------5---------|
C#|-------------------------------------|--------------------------------0----|-----------------------------------------|

 G|-----------------------------|-------------------------------------|-------------------------------------|
 D|-4---------------------------|-------------------------------------|-------------------------------------|
 A|------5------5----5----5-----|-2----4----4----4----4-----4----4----|-2----4----4----4----4-----4---------|
C#|-----------------------------|-------------------------------------|--------------------------------0----|

 G|-----------3--------------5--------------|-----------------------------|-------------------------------------|
 D|------3--------------5--------------3----|-4---------------------------|-------------------------------------|
 A|-2--------------3--------------5---------|------5------5----5----5-----|-2----4----4----4----4-----4----4----|
C#|-----------------------------------------|-----------------------------|-------------------------------------|

 G|-------------------------------------|-----------3--------------5--------------|
 D|-------------------------------------|------3--------------5--------------3----|
 A|-2----4----4----4----4-----4---------|-2--------------3--------------5---------|
C#|--------------------------------0----|-----------------------------------------|

 G|-----------------------------|-------------------------------------|-------------------------------------|
 D|-4---------------------------|-------------------------------------|-------------------------------------|
 A|------5------5----5----5-----|-2----4----4----4----4-----4----4----|-2----4----4----4----4-----4---------|
C#|-----------------------------|-------------------------------------|--------------------------------0----|

 G|-----------3--------------5--------------|-----------------------------|-------------------------------------|
 D|------3--------------5--------------3----|-4---------------------------|-------------------------------------|
 A|-2--------------3--------------5---------|------5------5----5----5-----|-2----4----4----4----4-----4----4----|
C#|-----------------------------------------|-----------------------------|-------------------------------------|

 G|-------------------------------------|-----------3--------------5--------------|
 D|-------------------------------------|------3--------------5--------------3----|
 A|-2----4----4----4----4-----4---------|-2--------------3--------------5---------|
C#|--------------------------------0----|-----------------------------------------|

 G|-----------------------------|-------------------------------------|-------------------------------------|
 D|-4---------------------------|-------------------------------------|-------------------------------------|
 A|------5------5----5----5-----|-2----4----4----4----4-----4----4----|-2----4----4----4----4-----4---------|
C#|-----------------------------|-------------------------------------|--------------------------------0----|

 G|-----------3--------------5--------------|-----------------------------|---------------------------------|
 D|------3--------------5--------------3----|-4---------------------------|-5-----5---------5-----5---------|
 A|-2--------------3--------------5---------|------5------5----5----5-----|------------5---------------5----|
C#|-----------------------------------------|-----------------------------|---------------------------------|

 G|---------------------------------|---------------------------------|---------------------------------|
 D|-5-----5---------5-----5---------|-3-----3---------3-----3---------|-5-----5---------5-----5---------|
 A|------------5---------------5----|------------3---------------3----|------------5---------------5----|
C#|---------------------------------|---------------------------------|---------------------------------|

 G|---------------------------------|---------------------------------|---------------------------------|
 D|-3-----3---------3-----3---------|-5-----5---------5-----5---------|-3-----3---------3-----3---------|
 A|------------3---------------3----|------------5---------------5----|------------3---------------3----|
C#|---------------------------------|---------------------------------|---------------------------------|

 G|---------------------------------|---------------------------------|---------------------------------|
 D|-5-----5---------5-----5---------|-3-----3---------3-----3---------|-3-----3---------3-----3----5----|
 A|------------5---------------5----|------------3---------------3----|------------3--------------------|
C#|---------------------------------|---------------------------------|---------------------------------|

 G|---------------------------------|---------------------------------|---------------------------------|
 D|-5-----5---------5-----5---------|-5-----5---------5-----5---------|-3-----3---------3-----3---------|
 A|------------5---------------5----|------------5---------------5----|------------3---------------3----|
C#|---------------------------------|---------------------------------|---------------------------------|

 G|---------------------------------|---------------------------------|---------------------------------|
 D|-3-----3---------3-----3----5----|-5-----5---------5-----5---------|-5-----5---------5-----5---------|
 A|------------3--------------------|------------5---------------5----|------------5---------------5----|
C#|---------------------------------|---------------------------------|---------------------------------|

 G|-5----5----5-----------------------------|------------5----5----5---------5----|
 D|----------------5----5----5--------------|------5--------------------5---------|
 A|-------------------------------5----5----|-5-----------------------------------|
C#|-----------------------------------------|-------------------------------------|

 G|-------------------------------------|-------------------------------------|-----------3--------------5--------------|
 D|-------------------------------------|-------------------------------------|------3--------------5--------------3----|
 A|-2----4----4----4----4-----4----4----|-2----4----4----4----4-----4---------|-2--------------3--------------5---------|
C#|-------------------------------------|--------------------------------0----|-----------------------------------------|

 G|-----------------------------|-------------------------------------|-------------------------------------|
 D|-4---------------------------|-------------------------------------|-------------------------------------|
 A|------5------5----5----5-----|-2----4----4----4----4-----4----4----|-2----4----4----4----4-----4---------|
C#|-----------------------------|-------------------------------------|--------------------------------0----|

 G|-----------3--------------5--------------|-----------------------------|-------------------------------------|
 D|------3--------------5--------------3----|-4---------------------------|-------------------------------------|
 A|-2--------------3--------------5---------|------5------5----5----5-----|-2----4----4----4----4-----4----4----|
C#|-----------------------------------------|-----------------------------|-------------------------------------|

 G|-------------------------------------|-----------3--------------5--------------|
 D|-------------------------------------|------3--------------5--------------3----|
 A|-2----4----4----4----4-----4---------|-2--------------3--------------5---------|
C#|--------------------------------0----|-----------------------------------------|

 G|-----------------------------|-------------------------------------|-------------------------------------|
 D|-4---------------------------|-------------------------------------|-------------------------------------|
 A|------5------5----5----5-----|-2----4----4----4----4-----4----4----|-2----4----4----4----4-----4---------|
C#|-----------------------------|-------------------------------------|--------------------------------0----|

 G|-----------3--------------5--------------|-----------------------------|-------------------------------------|
 D|------3--------------5--------------3----|-4---------------------------|-------------------------------------|
 A|-2--------------3--------------5---------|------5------5----5----5-----|-2----4----4----4----4-----4----4----|
C#|-----------------------------------------|-----------------------------|-------------------------------------|

 G|-------------------------------------|-----------3--------------5--------------|
 D|-------------------------------------|------3--------------5--------------3----|
 A|-2----4----4----4----4-----4---------|-2--------------3--------------5---------|
C#|--------------------------------0----|-----------------------------------------|

 G|-----------------------------|-------------------------------------|-------------------------------------|
 D|-4---------------------------|-------------------------------------|-------------------------------------|
 A|------5------5----5----5-----|-2----4----4----4----4-----4----4----|-2----4----4----4----4-----4---------|
C#|-----------------------------|-------------------------------------|--------------------------------0----|

 G|-----------3--------------5--------------|-----------------------------|-----------------------------|
 D|------3--------------5--------------3----|-4---------------------------|-5------5----%----3----5-----|
 A|-2--------------3--------------5---------|------5------5----5----5-----|-------------%---------------|
C#|-----------------------------------------|-----------------------------|-----------------------------|

 G|---------------------------------|---------------------|-------------------------|
 D|-5----5----%----3----5-----5-----|-3------2------0-----|-0----2------1-----2-----|
 A|-----------%---------------------|---------------------|-------------------------|
C#|---------------------------------|---------------------|-------------------------|

 G|-----------------------------|---------------------------------|---------------------|
 D|-5------5----%----3----5-----|-5----5----%----3----5-----5-----|-3------2------0-----|
 A|-------------%---------------|-----------%---------------------|---------------------|
C#|-----------------------------|---------------------------------|---------------------|

 G|-------------------------|---------|---------|-----------------------------------------|
 D|-0----2------3-----5-----|---------|---------|-----------------------------------------|
 A|-------------------------|-0-------|-0-------|-----------------------------------------|
C#|-------------------------|---------|---------|-6----6----10---6----10---6----10---6----|

 G|---------------------------------|-----------------------------------------|---------------------------------|
 D|-%-------------------------------|-----------------------------------------|-%-------------------------------|
 A|-%-------------------------------|-----------------------------------------|-%-------------------------------|
C#|------6----10---6----10---11-----|-6----6----10---6----10---6----10---6----|------6----10---6----10---11-----|

 G|-----------------------------------------|---------------------------------|-----------------------------------------|
 D|-----------------------------------------|-%-------------------------------|-----------------------------------------|
 A|-----------------------------------------|-%-------------------------------|-----------------------------------------|
C#|-6----6----10---6----10---6----10---6----|------6----10---6----10---11-----|-6----6----10---6----10---6----10---6----|

 G|---------------------------------|-----------------------------------------|---------------------------------|
 D|-%-------------------------------|-----------------------------------------|-%-------------------------------|
 A|-%-------------------------------|-----------------------------------------|-%-------------------------------|
C#|------6----10---6----10---11-----|-6----6----10---6----10---6----10---6----|------6----10---6----10---11-----|

 G|-----------------------------------------|---------------------------------|-----------------------------------------|
 D|-----------------------------------------|-%-------------------------------|-----------------------------------------|
 A|-----------------------------------------|-%-------------------------------|-----------------------------------------|
C#|-6----6----10---6----10---6----10---6----|------6----10---6----10---11-----|-6----6----10---6----10---6----10---6----|

 G|---------------------------------|-----------------------------------------|---------------------------------|
 D|-%-------------------------------|-----------------------------------------|-%-------------------------------|
 A|-%-------------------------------|-----------------------------------------|-%-------------------------------|
C#|------6----10---6----10---11-----|-6----6----10---6----10---6----10---6----|------6----10---6----10---11-----|

 G|-----------------------------------------|---------------------------------|-----------------------------------------|
 D|-----------------------------------------|-%-------------------------------|-----------------------------------------|
 A|-----------------------------------------|-%-------------------------------|-----------------------------------------|
C#|-6----6----10---6----10---6----10---6----|------6----10---6----10---11-----|-6----6----10---6----10---6----10---6----|

 G|---------------------------------|-----------------------------------------------|
 D|-%-------------------------------|-----------------------------------------------|
 A|-%-------------------------------|-5----5---5---5----3----5----5---5---5----5----|
C#|------6----10---6----10---11-----|-----------------------------------------------|

 G|-----------------------------|-----------------------------------------------|-----------------------------|
 D|-%---------%-----------------|-----------------------------------------------|-%---------%-----------------|
 A|-%----3----%----1------1-----|-5----5---5---5----3----5----5---5---5----5----|-%----3----%----1------1-----|
C#|-----------------------------|-----------------------------------------------|-----------------------------|

 G|-----------------------------------------------|---------------------------------|
 D|-----------------------------------------------|-%---------%---------%-----------|
 A|-5----5---5---5----3----5----5---5---5----5----|-%----3----%----1----%----3------|
C#|-----------------------------------------------|---------------------------------|

 G|---------|---------|-----------------------------------------|---------------------------------|
 D|---------|---------|-----------------------------------------|-%-------------------------------|
 A|-0-------|-0-------|-----------------------------------------|-%-------------------------------|
C#|---------|---------|-6----6----10---6----10---6----10---6----|------6----10---6----10---11-----|

 G|-----------------------------------------|---------------------------------|-----------------------------------------|
 D|-----------------------------------------|-%-------------------------------|-----------------------------------------|
 A|-----------------------------------------|-%-------------------------------|-----------------------------------------|
C#|-6----6----10---6----10---6----10---6----|------6----10---6----10---11-----|-6----6----10---6----10---6----10---6----|

 G|---------------------------------|-----------------------------------------|---------------------------------|
 D|-%-------------------------------|-----------------------------------------|-%-------------------------------|
 A|-%-------------------------------|-----------------------------------------|-%-------------------------------|
C#|------6----10---6----10---11-----|-6----6----10---6----10---6----10---6----|------6----10---6----10---11-----|

 G|-----------------------------------------|---------------------------------|-----------------------------------------|
 D|-----------------------------------------|-%-------------------------------|-----------------------------------------|
 A|-----------------------------------------|-%-------------------------------|-----------------------------------------|
C#|-6----6----10---6----10---6----10---6----|------6----10---6----10---11-----|-6----6----10---6----10---6----10---6----|

 G|---------------------------------|-----------------------------------------|---------------------------------|
 D|-%-------------------------------|-----------------------------------------|-%-------------------------------|
 A|-%-------------------------------|-----------------------------------------|-%-------------------------------|
C#|------6----10---6----10---11-----|-6----6----10---6----10---6----10---6----|------6----10---6----10---11-----|

 G|-----------------------------------------|---------------------------------|-----------------------------------------|
 D|-----------------------------------------|-%-------------------------------|-----------------------------------------|
 A|-----------------------------------------|-%-------------------------------|-----------------------------------------|
C#|-6----6----10---6----10---6----10---6----|------6----10---6----10---11-----|-6----6----10---6----10---6----10---6----|

 G|---------------------------------|-----------------------------------------|---------------------------------|
 D|-%-------------------------------|-----------------------------------------|-%-------------------------------|
 A|-%-------------------------------|-----------------------------------------|-%-------------------------------|
C#|------6----10---6----10---11-----|-6----6----10---6----10---6----10---6----|------6----10---6----10---11-----|

 G|-----------------------------------------------|-----------------------------|-----------------------------------------------|
 D|-----------------------------------------------|-%---------%-----------------|-----------------------------------------------|
 A|-5----5---5---5----3----5----5---5---5----5----|-%----3----%----1------1-----|-5----5---5---5----3----5----5---5---5----5----|
C#|-----------------------------------------------|-----------------------------|-----------------------------------------------|

 G|-----------------------------|-----------------------------------------------|---------------------------------|
 D|-%---------%-----------------|-----------------------------------------------|-%---------%---------%-----------|
 A|-%----3----%----1------1-----|-5----5---5---5----3----5----5---5---5----5----|-%----3----%----1----%----3------|
C#|-----------------------------|-----------------------------------------------|---------------------------------|

 G|---------------------------------------------------|---------------------------------------------------|
 D|---------------------------------------------------|---------------------------------------------------|
 A|---------------------------------------------------|---------------------------------------------------|
C#|-8-----8---7----7----7----8-----8---7----7----7----|-8-----8---7----7----7----8-----8---7----7----7----|

 G|---------------------------------------------------|---------------------------------------------------|
 D|---------------------------------------------------|---------------------------------------------------|
 A|---------------------------------------------------|---------------------------------------------------|
C#|-8-----8---7----7----7----8-----8---7----7----7----|-8-----8---7----7----7----8-----8---7----7----7----|

 G|---------------------------------------------------|---------------------------------------------------|
 D|---------------------------------------------------|---------------------------------------------------|
 A|---------------------------------------------------|---------------------------------------------------|
C#|-8-----8---7----7----7----8-----8---7----7----7----|-8-----8---7----7----7----8-----8---7----7----7----|

 G|---------------------------------------------------|---------------------------------------------------|
 D|---------------------------------------------------|---------------------------------------------------|
 A|---------------------------------------------------|---------------------------------------------------|
C#|-8-----8---7----7----7----8-----8---7----7----7----|-8-----8---7----7----7----8-----8---7----7----7----|

 G|---------------------------------------------------|---------------------------------------------------|
 D|---------------------------------------------------|---------------------------------------------------|
 A|---------------------------------------------------|---------------------------------------------------|
C#|-8-----8---7----7----7----8-----8---7----7----7----|-8-----8---7----7----7----8-----8---7----7----7----|

 G|---------------------------------------------------|---------------------------------------------------|
 D|---------------------------------------------------|---------------------------------------------------|
 A|---------------------------------------------------|---------------------------------------------------|
C#|-8-----8---7----7----7----8-----8---7----7----7----|-8-----8---7----7----7----8-----8---7----7----7----|

 G|-------------------------------------------------------------|-------------------------------------------------------------|
 D|-------------------------------------------------------------|-------------------------------------------------------------|
 A|-------------------------------------------------------------|-------------------------------------------------------------|
C#|-8----8----8----8----8----8----8----8----8----8----8----8----|-8----8----8----8----8----8----8----8----8----8----8----8----|

 G|---------|---------|---------|---------|---------|---------|---------|
 D|---------|---------|---------|---------|---------|---------|---------|
 A|---------|---------|---------|---------|---------|---------|---------|
C#|-8-------|-8-------|-8-------|-8-------|-8-------|-8-------|-8-------|
Black Sabbath - Sabbath Bloody Sabbath (Bassline)
Black Sabbath - Sabbath Bloody Sabbath (Bassline).gp3