Black Sabbath - Snowblind (2)

Black Sabbath - Snowblind (2)

Black Sabbath



Title: Snowblind
Album: 
Artist: Black Sabbath
Author: Black Sabbath

Track 1: Guitarra
E|--------------------|--------------------|-----------------------------------------|
B|--------------------|--------------------|---------------------2-------------------|
G|--------------------|--------------------|----------------2---------2--------------|
D|-6-----8-----9------|--------6-----------|-----------2-------------------2---------|
A|-4-----6-----7------|-9------4-----------|-0----4-----------------------------2----|
E|--------------------|-7-------------2----|-----------------------------------------|

E|-----------------------------------------|-----------------------------|------------------------------------|
B|----------------4----4-------------------|-----------------------------|------------------------------------|
G|-----------4--------------4--------------|-----------------------------|------------------------------------|
D|------4------------------------4---------|-6------6----6---------6-----|-6---------4-----4-------------2----|
A|-2----------------------------------2----|-4------4----4---------4-----|-4---------2-----2-----2---4--------|
E|-----------------------------------------|------------------2----------|------2-----------------------------|

E|---------------------------------|-----------------------------------------|-----------------------------|
B|---------------------------------|------------------------------------2----|-----------------------------|
G|---------------------------------|----------------2--------------4---------|-----------------------------|
D|---------------------------------|-----------2--------------4--------------|-6------6--------------6-----|
A|-4-----2----1--------------------|-0----4--------------2-------------------|-4------4----4---------4-----|
E|-----------------2-----0----2----|-----------------------------------------|------------------2----------|

E|------------------------------------|-----------------------------|------------------------------------|
B|------------------------------------|-----------------------------|------------------------------------|
G|------------------------------------|-----------------------------|------------------------------------|
D|-6---------4-----4-------------2----|-6------6----6---------6-----|-6---------4-----4-------------2----|
A|-4---------2-----2-----2---4--------|-4------4----4---------4-----|-4---------2-----2-----2---4--------|
E|------2-----------------------------|------------------2----------|------2-----------------------------|

E|-----------------------------|------------------------------------|---------------------------------|
B|-----------------------------|------------------------------------|---------------------------------|
G|-----------------------------|------------------------------------|---------------------------------|
D|-6------6----6---------6-----|-6---------4-----4-------------2----|---------------------------------|
A|-4------4----4---------4-----|-4---------2-----2-----2---4--------|-4-----2----1--------------------|
E|------------------2----------|------2-----------------------------|-----------------2-----0----2----|

E|-----------------------------------------|--------------------|--------------------|
B|------------------------------------2----|--------------------|--------------------|
G|----------------2--------------4---------|--------------------|--------------------|
D|-----------2--------------4--------------|-6-----8-----9------|--------6-----------|
A|-0----4--------------2-------------------|-4-----6-----7------|-9------4-----------|
E|-----------------------------------------|--------------------|-7-------------2----|

E|-----------------------------------------|-----------------------------------------|
B|---------------------2-------------------|----------------4----4-------------------|
G|----------------2---------2--------------|-----------4--------------4--------------|
D|-----------2-------------------2---------|------4------------------------4---------|
A|-0----4-----------------------------2----|-2----------------------------------2----|
E|-----------------------------------------|-----------------------------------------|

E|-----------------------------------------|-----------------------------------------|
B|---------------------2-------------------|-----------------------------------------|
G|------1---------1---------1---------1----|----------------1-------------------1----|
D|-----------2-------------------2---------|------4----2--------------2----2---------|
A|-4---------------------------------------|-2-------------------1-------------------|
E|-----------------------------------------|-----------------------------------------|

E|-----------------------------------------|-------------------------------------|-----------------------------------------|
B|---------------------2-------------------|---------------------2---------------|---------------------2-------------------|
G|----------------1---------1--------------|----------------1---------1----------|------1---------1---------1---------1----|
D|------2----2-------------------2----2----|------1----2-------------------2-----|-----------2-------------------2---------|
A|-0---------------------------------------|-------------------------------------|-4---------------------------------------|
E|-----------------------------------------|-4-----------------------------------|-----------------------------------------|

E|-----------------------------------------|-----------------------------------------|
B|-----------------------------------------|---------------------2-------------------|
G|----------------1-------------------1----|----------------1---------1--------------|
D|------4----2--------------2----2---------|------2----2-------------------2----2----|
A|-2-------------------1-------------------|-0---------------------------------------|
E|-----------------------------------------|-----------------------------------------|

E|-------------------------------------|-----------------------------------------|-----------------------------------------|
B|---------------------2---------------|---------------------2-------------------|-----------------------------------------|
G|----------------1---------1----------|------1---------1---------1---------1----|----------------1-------------------1----|
D|------1----2-------------------2-----|-----------2-------------------2---------|------4----2--------------2----2---------|
A|-------------------------------------|-4---------------------------------------|-2-------------------1-------------------|
E|-4-----------------------------------|-----------------------------------------|-----------------------------------------|

E|-----------------------------------------|-------------------------------------|--------------4----7----|
B|---------------------2-------------------|---------------------2---------------|------------------------|
G|----------------1---------1--------------|----------------1---------1----------|-%------%---------------|
D|------2----2-------------------2----2----|------1----2-------------------2-----|-%------%---------------|
A|-0---------------------------------------|-------------------------------------|------------------------|
E|-----------------------------------------|-4-----------------------------------|------------------------|

E|-7-----7-----7-----7-----|-7-----9----7------------------------|---------------|---------------------------------|
B|-------------------------|-----------------9----8----7----5----|---------------|---------------------------------|
G|-------------------------|-------------------------------------|---------------|---------------------------------|
D|-------------------------|-------------------------------------|-4-----2-------|-----------2----4----4-----4-----|
A|-------------------------|-------------------------------------|---------------|-2----4--------------------------|
E|-------------------------|-------------------------------------|---------------|---------------------------------|

E|----------------------------|-------------------------------------|----------------------------|
B|----------------------------|-------------------------------------|----------------------------|
G|----------------------------|-------------------------------------|----------------------------|
D|-4----4----2----4-----------|-----------2---------------2---------|------------------2----4----|
A|---------------------4------|-2----4---------4----4----------4----|-4------2----4--------------|
E|----------------------------|-------------------------------------|----------------------------|

E|------------------------|----------------------------|-------------------------------------|
B|------------------------|----------------------------|-------------------------------------|
G|------------------------|----------------------------|-------------------------------------|
D|-4------4----4----2-----|-4----4----2----4-----------|-----------2---------------2---------|
A|------------------------|---------------------4------|-2----4---------4----4----------4----|
E|------------------------|----------------------------|-------------------------------------|

E|----------------------------|----------------------------|-7-----7-----7-----7-----|
B|----------------------------|----------------------------|-------------------------|
G|----------------------------|----------------------------|-------------------------|
D|------------------2----4----|-4------4----4----2----4----|-------------------------|
A|-4------2----4--------------|----------------------------|-------------------------|
E|----------------------------|----------------------------|-------------------------|

E|-7-----9----7------------------------|-12-----12---9----------|-------------------------------------|
B|-----------------9----8----7----5----|------------------12----|-14---12-----------------------------|
G|-------------------------------------|------------------------|-----------13---12---11---9----------|
D|-------------------------------------|------------------------|-------------------------------11----|
A|-------------------------------------|------------------------|-------------------------------------|
E|-------------------------------------|------------------------|-------------------------------------|

E|-----------------------------|------------------------------------|-----------------------------|
B|-----------------------------|------------------------------------|-----------------------------|
G|-----------------------------|------------------------------------|-----------------------------|
D|-6------6----6---------6-----|-6---------4-----4-------------2----|-6------6----6---------6-----|
A|-4------4----4---------4-----|-4---------2-----2-----2---4--------|-4------4----4---------4-----|
E|------------------2----------|------2-----------------------------|------------------2----------|

E|------------------------------------|-----------------------------|------------------------------------|
B|------------------------------------|-----------------------------|------------------------------------|
G|------------------------------------|-----------------------------|------------------------------------|
D|-6---------4-----4-------------2----|-6------6----6---------6-----|-6---------4-----4-------------2----|
A|-4---------2-----2-----2---4--------|-4------4----4---------4-----|-4---------2-----2-----2---4--------|
E|------2-----------------------------|------------------2----------|------2-----------------------------|

E|---------------------------------|-----------------------------------------|-----------------------------------------|
B|---------------------------------|------------------------------------2----|-----------------------------------------|
G|---------------------------------|----------------2--------------4---------|-----------------------------------------|
D|---------------------------------|-----------2--------------4--------------|-----------------------------------------|
A|-4-----2----1--------------------|-0----4--------------2-------------------|-4-----4---7-----7---4-----4---7-----7---|
E|-----------------2-----0----2----|-----------------------------------------|-----------------------------------------|

E|-----------------------------------------|-----------------------------------------|
B|-----------------------------------------|-----------------------------------------|
G|-----------------------------------------|-----------------------------------------|
D|---------------------4---4-----4---4-----|-----------------------------------------|
A|-4-----4---7----4----2---2-----2---2-----|-4-----4---7-----7---4-----4---7-----7---|
E|-----------------------------------------|-----------------------------------------|

E|-----------------------------------------|-----------------------------------------|
B|-----------------------------------------|-----------------------------------------|
G|-----------------------------------------|-----------------------------------------|
D|---------------------4---4-----4---4-----|-----------------------------------------|
A|-4-----4---7----4----2---2-----2---2-----|-4-----4---7-----7---4-----4---7-----7---|
E|-----------------------------------------|-----------------------------------------|

E|-----------------------------------------|---------------------------------|-----------------------------------------|
B|-----------------------------------------|---------------------------------|------------------------------------2----|
G|-----------------------------------------|---------------------------------|----------------2--------------4---------|
D|---------------------4---4-----4---4-----|---------------------------------|-----------2--------------4--------------|
A|-4-----4---7----4----2---2-----2---2-----|-4-----2----1--------------------|-0----4--------------2-------------------|
E|-----------------------------------------|-----------------2-----0----2----|-----------------------------------------|

E|-----------------------------|------------------------------------|-----------------------------|
B|-----------------------------|------------------------------------|-----------------------------|
G|-----------------------------|------------------------------------|-----------------------------|
D|-6------6----6---------6-----|-6---------4-----4-------------2----|-6------6----6---------6-----|
A|-4------4----4---------4-----|-4---------2-----2-----2---4--------|-4------4----4---------4-----|
E|------------------2----------|------2-----------------------------|------------------2----------|

E|------------------------------------|-----------------------------|------------------------------------|
B|------------------------------------|-----------------------------|------------------------------------|
G|------------------------------------|-----------------------------|------------------------------------|
D|-6---------4-----4-------------2----|-6------6----6---------6-----|-6---------4-----4-------------2----|
A|-4---------2-----2-----2---4--------|-4------4----4---------4-----|-4---------2-----2-----2---4--------|
E|------2-----------------------------|------------------2----------|------2-----------------------------|

E|-----------------------------|------------------------------------|-----------------------------|
B|-----------------------------|------------------------------------|-----------------------------|
G|-----------------------------|------------------------------------|-----------------------------|
D|-6------6----6---------6-----|-6---------4-----4-------------2----|-6------6----6---------6-----|
A|-4------4----4---------4-----|-4---------2-----2-----2---4--------|-4------4----4---------4-----|
E|------------------2----------|------2-----------------------------|------------------2----------|

E|------------------------------------|-----------------------------|------------------------------------|
B|------------------------------------|-----------------------------|------------------------------------|
G|------------------------------------|-----------------------------|------------------------------------|
D|-6---------4-----4-------------2----|-6------6----6---------6-----|-6---------4-----4-------------2----|
A|-4---------2-----2-----2---4--------|-4------4----4---------4-----|-4---------2-----2-----2---4--------|
E|------2-----------------------------|------------------2----------|------2-----------------------------|

E|-----------------------------|------------------------------------|-----------------------------|
B|-----------------------------|------------------------------------|-----------------------------|
G|-----------------------------|------------------------------------|-----------------------------|
D|-6------6----6---------6-----|-6---------4-----4-------------2----|-6------6----6---------6-----|
A|-4------4----4---------4-----|-4---------2-----2-----2---4--------|-4------4----4---------4-----|
E|------------------2----------|------2-----------------------------|------------------2----------|

E|------------------------------------|-----------------------------|------------------------------------|
B|------------------------------------|-----------------------------|------------------------------------|
G|------------------------------------|-----------------------------|------------------------------------|
D|-6---------4-----4-------------2----|-6------6----6---------6-----|-6---------4-----4-------------2----|
A|-4---------2-----2-----2---4--------|-4------4----4---------4-----|-4---------2-----2-----2---4--------|
E|------2-----------------------------|------------------2----------|------2-----------------------------|

E|-----------------------------|------------------------------------|-----------------------------|
B|-----------------------------|------------------------------------|-----------------------------|
G|-----------------------------|------------------------------------|-----------------------------|
D|-6------6----6---------6-----|-6---------4-----4-------------2----|-6------6----6---------6-----|
A|-4------4----4---------4-----|-4---------2-----2-----2---4--------|-4------4----4---------4-----|
E|------------------2----------|------2-----------------------------|------------------2----------|

E|------------------------------------|-----------------------------|------------------------------------|
B|------------------------------------|-----------------------------|------------------------------------|
G|------------------------------------|-----------------------------|------------------------------------|
D|-6---------4-----4-------------2----|-6------6----6---------6-----|-6---------4-----4-------------2----|
A|-4---------2-----2-----2---4--------|-4------4----4---------4-----|-4---------2-----2-----2---4--------|
E|------2-----------------------------|------------------2----------|------2-----------------------------|

E|-----------------------------|------------------------------------|-----------------------------|
B|-----------------------------|------------------------------------|-----------------------------|
G|-----------------------------|------------------------------------|-----------------------------|
D|-6------6----6---------6-----|-6---------4-----4-------------2----|-6------6----6---------6-----|
A|-4------4----4---------4-----|-4---------2-----2-----2---4--------|-4------4----4---------4-----|
E|------------------2----------|------2-----------------------------|------------------2----------|

E|------------------------------------|---------|
B|------------------------------------|---------|
G|------------------------------------|-%-------|
D|-6---------4-----4-------------2----|-%-------|
A|-4---------2-----2-----2---4--------|---------|
E|------2-----------------------------|---------|
Black Sabbath - Snowblind (2)
Black Sabbath - Snowblind (2).gp4