Black Sabbath - Solitude (intro)

Black Sabbath



Title: Solitude
Album: Master of Reality
Artist: Black Sabbath
Author: Black Sabbath

Track 1: Track 1
E|-------------------------------------------|--------------------------|-------------------------------------------|
B|------------3------------------------------|-------------3------------|------------3------------------------------|
G|-------3----------5-----2---3---2----------|-------3-----------5------|-------3----------5-----2---3---2----------|
D|-5-----------------------------------3-----|-5------------------------|-5-----------------------------------3-----|
A|-------------------------------------------|--------------------------|-------------------------------------------|
E|-------------------------------------------|--------------------------|-------------------------------------------|

E|--------------------------|-5----6----5---------5-----5-----5----5----------|-5----6----5---------5-----5-----5----5----------|
B|-------------3------------|----------------6--------------------------------|----------------6--------------------------------|
G|-------3-----------5------|-------------------------------------------%-----|-------------------------------------------%-----|
D|-5------------------------|-------------------------------------------%-----|-------------------------------------------%-----|
A|--------------------------|-------------------------------------------------|-------------------------------------------------|
E|--------------------------|-------------------------------------------------|-------------------------------------------------|

E|-------------------------------------------|-------------------------------------------|
B|------------3------------------------------|-------------3-----------------------------|
G|-------3----------5-----2---3---2----------|-------3-----------5-----2---3---2---------|
D|-5-----------------------------------3-----|-5------------------------------------3----|
A|-------------------------------------------|-------------------------------------------|
E|-------------------------------------------|-------------------------------------------|

E|-3------3----3-------|-1------1----1-------|-3------3----3-------|
B|-0------0----0-------|-1------1----1-------|-0------0----0-------|
G|-0------0----0---%---|-2------2----2---%---|-0------0----0---%---|
D|-0------0----0---%---|-3------3----3---%---|-0------0----0---%---|
A|-2------2----2-------|-0------0----0-------|-2------2----2-------|
E|-3------3----3-------|-1------1----1-------|-3------3----3-------|
Black Sabbath - Solitude (intro)
Black Sabbath - Solitude (intro).gp3