Black Sabbath - Spiral Architect

Black Sabbath



Title: Spiral Architect
Album: Sabbath Bloody Sabbath
Artist: Black Sabbath
Author: Andrew Walshver

Track 1: Acoustic Guitar
C#|-------------0-----------------------0-----------------------0-----------------------0-----------|
G#|---------6-------6---------------6-------6---------------6-------6---------------6-------6-------|
 E|-----7---------------7-------7---------------7-------7---------------7-------7---------------7---|
 B|-0-------------------0---0-------------------0---0-------------------0---0-------------------0---|
F#|-------------------------------------------------------------------------------------------------|
C#|-------------------------------------------------------------------------------------------------|

C#|-------------0-----------------------0-----------------------0-----------------------0-----------|
G#|---------8-------8---------------8-------8---------------8-------8---------------8-------8-------|
 E|-----7---------------7-------7---------------7-------7---------------7-------7---------------7---|
 B|-0-------------------0---0-------------------0---0-------------------0---0-------------------0---|
F#|-------------------------------------------------------------------------------------------------|
C#|-------------------------------------------------------------------------------------------------|

C#|-------------8-----------------------8-----------------------8-----------------------8-----------|
G#|---------6-------6---------------6-------6---------------6-------6---------------6-------6-------|
 E|-----7---------------7-------7---------------7-------7---------------7-------7---------------7---|
 B|-0-------------------0---0-------------------0---0-------------------0---0-------------------0---|
F#|-------------------------------------------------------------------------------------------------|
C#|-------------------------------------------------------------------------------------------------|

C#|-------------------------------------------------------------------------------------------------|
G#|-------------0-----------------------0-----------------------0-----------------------0-----------|
 E|---------6-------6---------------4-------4---------------6-------6---------------4-------4-------|
 B|-----7---------------7-------5---------------5-------7---------------7-------5---------------5---|
F#|-0-------------------0---0-------------------0---0-------------------0---0-------------------0---|
C#|-------------------------------------------------------------------------------------------------|

C#|-------------------------------------------------------------------------------------------------|
G#|-------------0-----------------------0-----------------------0-----------------------0-----------|
 E|---------6-------6---------------4-------4---------------6-------6---------------4-------4-------|
 B|-----7---------------7-------5---------------5-------7---------------7-------5---------------5---|
F#|-0-------------------0---0-------------------0---0-------------------0---0-------------------0---|
C#|-------------------------------------------------------------------------------------------------|

C#|-------------0-----------------------0-----------------------0-----------------------0-----------|
G#|---------6-------6---------------6-------6---------------6-------6---------------6-------6-------|
 E|-----7---------------7-------7---------------7-------7---------------7-------7---------------7---|
 B|-0-------------------0---0-------------------0---0-------------------0---0-------------------0---|
F#|-------------------------------------------------------------------------------------------------|
C#|-------------------------------------------------------------------------------------------------|

C#|-------------0-----------------------0-----------------------0-----------------------0-----------|
G#|---------8-------8---------------8-------8---------------8-------8---------------8-------8-------|
 E|-----7---------------7-------7---------------7-------7---------------7-------7---------------7---|
 B|-0-------------------0---0-------------------0---0-------------------0---0-------------------0---|
F#|-------------------------------------------------------------------------------------------------|
C#|-------------------------------------------------------------------------------------------------|

C#|-------------8-----------------------8-----------------------8-----------------------8-----------|
G#|---------6-------6---------------6-------6---------------6-------6---------------6-------6-------|
 E|-----7---------------7-------7---------------7-------7---------------7-------7---------------7---|
 B|-0-------------------0---0-------------------0---0-------------------0---0-------------------0---|
F#|-------------------------------------------------------------------------------------------------|
C#|-------------------------------------------------------------------------------------------------|

C#|-------------------------------------------------------------------------------------------------|
G#|-------------0-----------------------0-----------------------0-----------------------0-----------|
 E|---------6-------6---------------4-------4---------------6-------6---------------4-------4-------|
 B|-----7---------------7-------5---------------5-------7---------------7-------5---------------5---|
F#|-0-------------------0---0-------------------0---0-------------------0---0-------------------0---|
C#|-------------------------------------------------------------------------------------------------|

C#|-------------------------------------------------------------------------------------------------|
G#|-------------0-----------------------0-----------------------0-----------------------0-----------|
 E|---------6-------6---------------4-------4---------------6-------6---------------4-------4-------|
 B|-----7---------------7-------5---------------5-------7---------------7-------5---------------5---|
F#|-0-------------------0---0-------------------0---0-------------------0---0-------------------0---|
C#|-------------------------------------------------------------------------------------------------|
Black Sabbath - Spiral Architect
Black Sabbath - Spiral Architect.gp3