Black Sabbath - St. Vitus Dance

Black Sabbath - St. Vitus Dance

Black Sabbath



Title: St. Vitus Dance
Album: 
Artist: Black Sabbath
Author: Black Sabbath

Track 1: Guitar
C#|-------2---------------------|-----------------------2-----|-------2-----3----2----2-----|
G#|-------3-----3-----0----3----|-3---------------------3-----|-------3-----3---------------|
 E|-------2---------------------|-----------------------2-----|-------2---------------------|
 B|-0---------------------------|------0----2-----0-----------|-0---------------------------|
F#|-----------------------------|-----------------------------|-----------------------------|
C#|-----------------------------|-----------------------------|-----------------------------|

C#|-2---------------------2-----|---------------------------------|-------------------------------------|
G#|-----------------------3-----|---------------------------------|-------------------------------------|
 E|-----------------------2-----|---------------------------------|-------------------------------------|
 B|------0----2-----0-----------|-7-----X----7----7-----X----7----|-5-----X----5----10---9----10---12---|
F#|-----------------------------|-5-----X----5----5-----X----5----|-3-----X----3----8----7----8----10---|
C#|-----------------------------|---------------------------------|-------------------------------------|

C#|---------------------------------|-------------------------------------|---------------------------------|
G#|---------------------------------|-------------------------------------|---------------------------------|
 E|---------------------------------|-------------------------------------|---------------------------------|
 B|-7-----X----7----7-----X----7----|-5-----X----5----10---9----10---12---|-7-----X----7----7-----X----7----|
F#|-5-----X----5----5-----X----5----|-3-----X----3----8----7----8----10---|-5-----X----5----5-----X----5----|
C#|---------------------------------|-------------------------------------|---------------------------------|

C#|-------------------------------------|-------2---------------------|-----------------------2-----|
G#|-------------------------------------|-------3-----3-----0----3----|-3---------------------3-----|
 E|-------------------------------------|-------2---------------------|-----------------------2-----|
 B|-5-----X----5----10---9----10---12---|-0---------------------------|------0----2-----0-----------|
F#|-3-----X----3----8----7----8----10---|-----------------------------|-----------------------------|
C#|-------------------------------------|-----------------------------|-----------------------------|

C#|-------2-----3----2----2-----|-2---------------------2-----|---------------------------------|
G#|-------3-----3---------------|-----------------------3-----|---------------------------------|
 E|-------2---------------------|-----------------------2-----|---------------------------------|
 B|-0---------------------------|------0----2-----0-----------|-7-----X----7----7-----X----7----|
F#|-----------------------------|-----------------------------|-5-----X----5----5-----X----5----|
C#|-----------------------------|-----------------------------|---------------------------------|

C#|-------------------------------------|---------------------------------|-------------------------------------|
G#|-------------------------------------|---------------------------------|-------------------------------------|
 E|-------------------------------------|---------------------------------|-------------------------------------|
 B|-5-----X----5----10---9----10---12---|-7-----X----7----7-----X----7----|-5-----X----5----10---9----10---12---|
F#|-3-----X----3----8----7----8----10---|-5-----X----5----5-----X----5----|-3-----X----3----8----7----8----10---|
C#|-------------------------------------|---------------------------------|-------------------------------------|

C#|---------------------------------|-------------------------------------|-------2---------------------|
G#|---------------------------------|-------------------------------------|-------3-----3-----0----3----|
 E|---------------------------------|-------------------------------------|-------2---------------------|
 B|-7-----X----7----7-----X----7----|-5-----X----5----10---9----10---12---|-0---------------------------|
F#|-5-----X----5----5-----X----5----|-3-----X----3----8----7----8----10---|-----------------------------|
C#|---------------------------------|-------------------------------------|-----------------------------|

C#|-----------------------2-----|-------2-----3----2----2-----|-2---------------------2-----|
G#|-3---------------------3-----|-------3-----3---------------|-----------------------3-----|
 E|-----------------------2-----|-------2---------------------|-----------------------2-----|
 B|------0----2-----0-----------|-0---------------------------|------0----2-----0-----------|
F#|-----------------------------|-----------------------------|-----------------------------|
C#|-----------------------------|-----------------------------|-----------------------------|

C#|---------------------------------|-----------------------------|---------------------------------|
G#|---------------------------------|-----------------------------|---------------------------------|
 E|---------------------------------|-----------------------------|---------------------------------|
 B|---------------------------------|-----------------------------|---------------------------------|
F#|-9-----X----9----9-----X----9----|-7-----X----7----4-----7-----|-9-----X----9----9-----X----9----|
C#|-7-----X----7----7-----X----7----|-5-----X----5----2-----5-----|-7-----X----7----7-----X----7----|

C#|-----------------------------|---------------------------------|-----------------------------|
G#|-----------------------------|---------------------------------|-----------------------------|
 E|-----------------------------|---------------------------------|-----------------------------|
 B|-----------------------------|---------------------------------|-----------------------------|
F#|-7-----X----7----4-----7-----|-9-----X----9----9-----X----9----|-7-----X----7----4-----7-----|
C#|-5-----X----5----2-----5-----|-7-----X----7----7-----X----7----|-5-----X----5----2-----5-----|

C#|-------2---------------------|-----------------------2-----|-------2-----3----2----2-----|
G#|-------3-----3-----0----3----|-3---------------------3-----|-------3-----3---------------|
 E|-------2---------------------|-----------------------2-----|-------2---------------------|
 B|-0---------------------------|------0----2-----0-----------|-0---------------------------|
F#|-----------------------------|-----------------------------|-----------------------------|
C#|-----------------------------|-----------------------------|-----------------------------|

C#|-2---------------------2-----|---------------------------------|-------------------------------------|
G#|-----------------------3-----|---------------------------------|-------------------------------------|
 E|-----------------------2-----|---------------------------------|-------------------------------------|
 B|------0----2-----0-----------|-7-----X----7----7-----X----7----|-5-----X----5----10---9----10---12---|
F#|-----------------------------|-5-----X----5----5-----X----5----|-3-----X----3----8----7----8----10---|
C#|-----------------------------|---------------------------------|-------------------------------------|

C#|---------------------------------|-------------------------------------|---------------------------------|
G#|---------------------------------|-------------------------------------|---------------------------------|
 E|---------------------------------|-------------------------------------|---------------------------------|
 B|-7-----X----7----7-----X----7----|-5-----X----5----10---9----10---12---|-7-----X----7----7-----X----7----|
F#|-5-----X----5----5-----X----5----|-3-----X----3----8----7----8----10---|-5-----X----5----5-----X----5----|
C#|---------------------------------|-------------------------------------|---------------------------------|

C#|-------------------------------------|-------2---------------------|-----------------------2-----|
G#|-------------------------------------|-------3-----3-----0----3----|-3---------------------3-----|
 E|-------------------------------------|-------2---------------------|-----------------------2-----|
 B|-5-----X----5----10---9----10---12---|-0---------------------------|------0----2-----0-----------|
F#|-3-----X----3----8----7----8----10---|-----------------------------|-----------------------------|
C#|-------------------------------------|-----------------------------|-----------------------------|

C#|-------2-----3----2----2-----|-2---------------------2-----|
G#|-------3-----3---------------|-----------------------3-----|
 E|-------2---------------------|-----------------------2-----|
 B|-0---------------------------|------0----2-----0-----------|
F#|-----------------------------|-----------------------------|
C#|-----------------------------|-----------------------------|
Black Sabbath - St. Vitus Dance
Black Sabbath - St. Vitus Dance.gp3