Black Sabbath - The Illusion Of Power

Black Sabbath - The Illusion Of Power

Black Sabbath



Title: The Illusion Of Power
Album: Forbidden
Artist: Black Sabbath
Author: Black Sabbath

Track 1: Tony Iommi (Lead Guitar)
 E|---------|---------|-------------------------|-------------------------|-------------------|
 B|---------|---------|-------------------------|-------------------------|-------------------|
 G|-%-------|-%-------|-%-----%-----%-----10----|-------------------------|-------------------|
 D|-%-------|-%-------|-%-----%-----%-----------|-------------------------|-------------------|
 A|---------|---------|-------------------------|-1-------1---------------|-----------6-------|
D#|---------|---------|-------------------------|-0-------0---0---3---6---|-3---0-------------|

 E|-------------------------|-------------------|-------------------------|-------------------|
 B|-------------------------|-------------------|-------------------------|-------------------|
 G|-------------------------|-------------------|-------------------------|-------------------|
 D|-------------------------|-------------------|-------------------------|-------------------|
 A|-1-------1---------------|-----------6-------|-1-------1---------------|-----------6-------|
D#|-0-------0---0---3---6---|-3---0-------------|-0-------0---0---3---6---|-3---0-------------|

 E|---------|-------------------------|-------------------------|-------------------------|
 B|---------|-------------------------|-------------------------|-------------------------|
 G|---------|-------------------------|-------------------------|-------------------------|
 D|---------|-------6-----5-----------|-------4-----4-----------|-------6-----5-----------|
 A|-6-------|-4-----------------6-----|-7-----------------5-----|-4-----------------6-----|
D#|---------|-------------------------|-------------------------|-------------------------|

 E|-------------------------|-------------------------|-------------------------|------------------------------------|
 B|-------------------------|-------------------------|-------------------------|------------------------------------|
 G|-------------------------|-------------------------|-------------------------|------------------------------------|
 D|-------4-----4-----------|-------6-----5-----------|-------4-----4-----------|-----------8----7-------7-----8-----|
 A|-7-----------------5-----|-4-----------------6-----|-7-----------------5-----|-6-----6------------6---------------|
D#|-------------------------|-------------------------|-------------------------|-0----------------------------------|

 E|----------------------------------------------------|------------------------------------|
 B|----------------------------------------------------|------------------------------------|
 G|----------------------------------------------------|------------------------------------|
 D|-4---4---4---4---3-----2---2---2---2----------------|-----------8----7-------7-----8-----|
 A|-2---2---2---2---1-----0---0---0---0---6------------|-6-----6------------6---------------|
D#|---------------------------------------5----0---3---|-0----------------------------------|

 E|---------------------------------------------|-------------------------|-------------------------|
 B|---------------------------------------------|-------------------------|-------------------------|
 G|---------------------------------------------|-------------------------|-------------------------|
 D|-4---4---4---4---3-----2---2---2---2---------|-------6-----5-----------|-------4-----4-----------|
 A|-2---2---2---2---1-----0---0---0---0---6-----|-4-----------------6-----|-7-----------------5-----|
D#|---------------------------------------5-----|-------------------------|-------------------------|

 E|-------------------------|-------------------------|------------------------------------|
 B|-------------------------|-------------------------|------------------------------------|
 G|-------------------------|-------------------------|------------------------------------|
 D|-------6-----5-----------|-------4-----4-----------|-----------8----7-------7-----8-----|
 A|-4-----------------6-----|-7-----------------5-----|-6-----6------------6---------------|
D#|-------------------------|-------------------------|-0----------------------------------|

 E|----------------------------------------------------|------------------------------------|
 B|----------------------------------------------------|------------------------------------|
 G|----------------------------------------------------|------------------------------------|
 D|-4---4---4---4---3-----2---2---2---2----------------|-----------8----7-------7-----8-----|
 A|-2---2---2---2---1-----0---0---0---0---6------------|-6-----6------------6---------------|
D#|---------------------------------------5----0---3---|-0----------------------------------|

 E|---------------------------------------------|---------------------------------|
 B|---------------------------------------------|---------------------------------|
 G|---------------------------------------------|---------------------------------|
 D|-4---4---4---4---3-----2---2---2---2---------|---------------------------------|
 A|-2---2---2---2---1-----0---0---0---0---6-----|------------4--------------------|
D#|---------------------------------------5-----|-0-----6----------0----3----6----|

 E|---------------------------------|------------------------------------|----------------------------------------------------|
 B|---------------------------------|------------------------------------|----------------------------------------------------|
 G|---------------------------------|------------------------------------|----------------------------------------------------|
 D|---------------------------------|-----------8----7-------7-----8-----|-4---4---4---4---3-----2---2---2---2----------------|
 A|------------4--------------------|-6-----6------------6---------------|-2---2---2---2---1-----0---0---0---0---6------------|
D#|-0-----6----------0----3----6----|-0----------------------------------|---------------------------------------5----0---3---|

 E|------------------------------------|---------------------------------------------|
 B|------------------------------------|---------------------------------------------|
 G|------------------------------------|---------------------------------------------|
 D|-----------8----7-------7-----8-----|-4---4---4---4---3-----2---2---2---2---------|
 A|-6-----6------------6---------------|-2---2---2---2---1-----0---0---0---0---6-----|
D#|-0----------------------------------|---------------------------------------5-----|

 E|------------------------------------|----------------------------------------------------|
 B|------------------------------------|----------------------------------------------------|
 G|------------------------------------|----------------------------------------------------|
 D|-----------8----7-------7-----8-----|-4---4---4---4---3-----2---2---2---2----------------|
 A|-6-----6------------6---------------|-2---2---2---2---1-----0---0---0---0---6------------|
D#|-0----------------------------------|---------------------------------------5----0---3---|

 E|------------------------------------|----------------------------------------------------|
 B|------------------------------------|----------------------------------------------------|
 G|------------------------------------|----------------------------------------------------|
 D|-----------8----7-------7-----8-----|-4---4---4---4---3-----2---2---2---2----------------|
 A|-6-----6------------6---------------|-2---2---2---2---1-----0---0---0---0---6------------|
D#|-0----------------------------------|---------------------------------------5----0---3---|

 E|---------|---------|-------------------------|-------------------|-------------------------|
 B|---------|---------|-------------------------|-------------------|-------------------------|
 G|---------|---------|-------------------------|-------------------|-------------------------|
 D|---------|---------|-------------------------|-------------------|-------------------------|
 A|-1-------|-1-------|-1-------1---------------|-----------6-------|-1-------1---------------|
D#|-0-------|-0-------|-0-------0---0---3---6---|-3---0-------------|-0-------0---0---3---6---|

 E|-------------------|-------------------------|-------------------|-------------------------|
 B|-------------------|-------------------------|-------------------|-------------------------|
 G|-------------------|-------------------------|-------------------|-------------------------|
 D|-------------------|-------------------------|-------------------|-------------------------|
 A|-----------6-------|-1-------1---------------|-----------6-------|-1-------1---------------|
D#|-3---0-------------|-0-------0---0---3---6---|-3---0-------------|-0-------0---0---3---6---|

 E|-------------------|-------------------------|-------------------|-------------------------|
 B|-------------------|-------------------------|-------------------|-------------------------|
 G|-------------------|-------------------------|-------------------|-------------------------|
 D|-------------------|-------------------------|-------------------|-------------------------|
 A|-----------6-------|-1-------1---------------|-----------6-------|-1-------1---------------|
D#|-3---0-------------|-0-------0---0---3---6---|-3---0-------------|-0-------0---0---3---6---|

 E|-------------------|---------|---------|---------|---------|---------|---------|
 B|-------------------|---------|---------|---------|---------|---------|---------|
 G|-------------------|---------|---------|---------|---------|---------|---------|
 D|-------------------|---------|---------|---------|---------|---------|---------|
 A|-----------6-------|-6-------|-6-------|-6-------|-6-------|-6-------|-6-------|
D#|-3---0-------------|---------|---------|---------|---------|---------|---------|

 E|---------|---------|
 B|---------|---------|
 G|---------|---------|
 D|---------|---------|
 A|-6-------|-6-------|
D#|---------|---------|
Black Sabbath - The Illusion Of Power
Black Sabbath - The Illusion Of Power.gp4