Black Sabbath - The Wizard

Black Sabbath



Title: The Wizard
Album: 
Artist: Black Sabbath
Author: Black Sabbath

Track 1: Guitar
E|---------------|----------------|---------------|----------------|----------------|
B|---------------|----------------|---------------|----------------|----------------|
G|-%-------%-----|-%-------%------|-%-------%-----|-%-------%------|-%-------%------|
D|-%-------%-----|-%-------%------|-%-------%-----|-%-------%------|-%-------%------|
A|---------------|----------------|---------------|----------------|----------------|
E|---------------|----------------|---------------|----------------|----------------|

E|-----------------------------|--------------------------------------------------------|
B|-----------------------------|------5-------5-----------------------------------------|
G|------------------%----%-----|-%----5---%---5-------------------------------------%---|
D|-7-----10----7----%----%-----|-%--------%-----------------5-----------------------%---|
A|-7-----10----7---------------|--------------------5---7-------7---5---3---------------|
E|-5-----8-----5---------------|--------------------------------------------5---3-------|

E|-----------------------------|--------------------------------------------------------|
B|-----------------------------|------5-------5-----------------------------------------|
G|------------------%----%-----|-%----5---%---5-------------------------------------%---|
D|-7-----10----7----%----%-----|-%--------%-----------------5-----------------------%---|
A|-7-----10----7---------------|--------------------5---7-------7---5---3---------------|
E|-5-----8-----5---------------|--------------------------------------------5---3-------|

E|-----------------------------|--------------------------------------------------------|
B|-----------------------------|------5-------5-----------------------------------------|
G|------------------%----%-----|-%----5---%---5-------------------------------------%---|
D|-7-----10----7----%----%-----|-%--------%-----------------5-----------------------%---|
A|-7-----10----7---------------|--------------------5---7-------7---5---3---------------|
E|-5-----8-----5---------------|--------------------------------------------5---3-------|

E|-----------------------------|--------------------------------------------------------|
B|-----------------------------|------5-------5-----------------------------------------|
G|------------------%----%-----|-%----5---%---5-------------------------------------%---|
D|-7-----10----7----%----%-----|-%--------%-----------------5-----------------------%---|
A|-7-----10----7---------------|--------------------5---7-------7---5---3---------------|
E|-5-----8-----5---------------|--------------------------------------------5---3-------|

E|---------|----------------------------------------------------------------|-----------------------------------------------------|
B|---------|----------------------------------------------------------------|-----------------------------------------------------|
G|---------|----------------------------------------------------------------|---------------------5-------------------------------|
D|---------|-------------------------------------------------5----5---7-----|-7---5-------5---7-------7----7---5--------5---7-----|
A|---------|-3---5---3--5--3--5--3---5---3--5--3--5--5---7------------------|---------7----------------------------7--------------|
E|-5-------|----------------------------------------------------------------|-----------------------------------------------------|

E|--------------------------------------------------|-----------------------------------------------------------|
B|-------5---8--------------------------------------|-----------------------------------------------------------|
G|-7-------------7----5---7---5-------%-------------|-------------%-----------5---%---------------%-------------|
D|--------------------------------7---%---5---7-----|---------5---%---5---7-------%---7---5-------%---5---7-----|
A|--------------------------------------------------|-5---7-----------------------------------7-----------------|
E|--------------------------------------------------|-----------------------------------------------------------|

E|---------|-----------------------------|--------------------------------------------------------|
B|---------|-----------------------------|------5-------5-----------------------------------------|
G|---------|------------------%----%-----|-%----5---%---5-------------------------------------%---|
D|-7-------|-7-----10----7----%----%-----|-%--------%-----------------5-----------------------%---|
A|---------|-7-----10----7---------------|--------------------5---7-------7---5---3---------------|
E|---------|-5-----8-----5---------------|--------------------------------------------5---3-------|

E|-----------------------------|--------------------------------------------------------|
B|-----------------------------|------5-------5-----------------------------------------|
G|------------------%----%-----|-%----5---%---5-------------------------------------%---|
D|-7-----10----7----%----%-----|-%--------%-----------------5-----------------------%---|
A|-7-----10----7---------------|--------------------5---7-------7---5---3---------------|
E|-5-----8-----5---------------|--------------------------------------------5---3-------|

E|---------------|------------------------|------------------------|------------------------|
B|---------------|------------------------|------------------------|------------------------|
G|---------%-----|-----------%------------|------%----%-----%------|-----------%------------|
D|---------%-----|-7----7----%------8-----|-7----%----%-----%------|-7----7----%------8-----|
A|---------------|-7----7-----------8-----|-7----------------------|-7----7-----------8-----|
E|-5-------------|-5----5-----------6-----|-5----------------------|-5----5-----------6-----|

E|------------------------|------------------------|------------------------|------------------------|
B|------------------------|------------------------|------------------------|------------------------|
G|------%----%-----%------|-----------%------------|------%----%-----5------|-----------%------------|
D|-7----%----%-----%------|-7----7----%------8-----|-7----%----%------------|-7----7----%------8-----|
A|-7----------------------|-7----7-----------8-----|-7----------------------|-7----7-----------8-----|
E|-5----------------------|-5----5-----------6-----|-5----------------------|-5----5-----------6-----|

E|----------------------------------------------------------|------------------------|
B|----------------------------------------------------------|------------------------|
G|------%----%-----------------------------------------%----|-----------%------------|
D|-7----%----%-----5--7--5--7--5--7--5--7--5--7--5-----%----|-7----7----%------8-----|
A|-7------------------------------------------------7-------|-7----7-----------8-----|
E|-5--------------------------------------------------------|-5----5-----------6-----|

E|------------------------|------------------------|------------------------|----------------------------------|
B|------------------------|------------------------|------------------------|----------------------------------|
G|------%----%-----5------|-----------%------------|------%----%-----%------|---------%-------%---------%------|
D|-7----%----%------------|-7----7----%------8-----|-7----%----%-----%------|-10--9---%---7---%---7-----%------|
A|-7----------------------|-7----7-----------8-----|-7----------------------|-10--9-------7-------7------------|
E|-5----------------------|-5----5-----------6-----|-5----------------------|-8---7-------5-------5------------|

E|----------------------------------|----------------------------------|----------------------------------|
B|----------------------------------|----------------------------------|----------------------------------|
G|---------%-------%---------%------|---------%-------%---------%------|---------%-------%---------%------|
D|-10--9---%---7---%---7-----%------|-10--9---%---7---%---7-----%------|-10--9---%---7---%---7-----%------|
A|-10--9-------7-------7------------|-10--9-------7-------7------------|-10--9-------7-------7------------|
E|-8---7-------5-------5------------|-8---7-------5-------5------------|-8---7-------5-------5------------|

E|-----------------------------|--------------------------------------------------------|
B|-----------------------------|------5-------5-----------------------------------------|
G|------------------%----%-----|-%----5---%---5-------------------------------------%---|
D|-7-----10----7----%----%-----|-%--------%-----------------5-----------------------%---|
A|-7-----10----7---------------|--------------------5---7-------7---5---3---------------|
E|-5-----8-----5---------------|--------------------------------------------5---3-------|

E|-----------------------------|--------------------------------------------------------|
B|-----------------------------|------5-------5-----------------------------------------|
G|------------------%----%-----|-%----5---%---5-------------------------------------%---|
D|-7-----10----7----%----%-----|-%--------%-----------------5-----------------------%---|
A|-7-----10----7---------------|--------------------5---7-------7---5---3---------------|
E|-5-----8-----5---------------|--------------------------------------------5---3-------|

E|-----------------------------|--------------------------------------------------------|
B|-----------------------------|------5-------5-----------------------------------------|
G|------------------%----%-----|-%----5---%---5-------------------------------------%---|
D|-7-----10----7----%----%-----|-%--------%-----------------5-----------------------%---|
A|-7-----10----7---------------|--------------------5---7-------7---5---3---------------|
E|-5-----8-----5---------------|--------------------------------------------5---3-------|

E|-----------------------------|--------------------------------------------------------|
B|-----------------------------|------5-------5-----------------------------------------|
G|------------------%----%-----|-%----5---%---5-------------------------------------%---|
D|-7-----10----7----%----%-----|-%--------%-----------------5-----------------------%---|
A|-7-----10----7---------------|--------------------5---7-------7---5---3---------------|
E|-5-----8-----5---------------|--------------------------------------------5---3-------|

E|---------------|------------------------|------------------------|------------------------|
B|---------------|------------------------|------------------------|------------------------|
G|---------%-----|-----------%------------|------%----%-----%------|-----------%------------|
D|---------%-----|-7----7----%------8-----|-7----%----%-----%------|-7----7----%------8-----|
A|---------------|-7----7-----------8-----|-7----------------------|-7----7-----------8-----|
E|-5-------------|-5----5-----------6-----|-5----------------------|-5----5-----------6-----|

E|------------------------|------------------------|------------------------|------------------------|
B|------------------------|------------------------|------------------------|------------------------|
G|------%----%-----%------|-----------%------------|------%----%-----5------|-----------%------------|
D|-7----%----%-----%------|-7----7----%------8-----|-7----%----%------------|-7----7----%------8-----|
A|-7----------------------|-7----7-----------8-----|-7----------------------|-7----7-----------8-----|
E|-5----------------------|-5----5-----------6-----|-5----------------------|-5----5-----------6-----|

E|----------------------------------------------------------|------------------------|
B|----------------------------------------------------------|------------------------|
G|------%----%-----------------------------------------%----|-----------%------------|
D|-7----%----%-----5--7--5--7--5--7--5--7--5--7--5-----%----|-7----7----%------8-----|
A|-7------------------------------------------------7-------|-7----7-----------8-----|
E|-5--------------------------------------------------------|-5----5-----------6-----|

E|------------------------|------------------------|------------------------|----------------------------------|
B|------------------------|------------------------|------------------------|----------------------------------|
G|------%----%-----5------|-----------%------------|------%----%-----%------|---------%-------%---------%------|
D|-7----%----%------------|-7----7----%------8-----|-7----%----%-----%------|-10--9---%---7---%---7-----%------|
A|-7----------------------|-7----7-----------8-----|-7----------------------|-10--9-------7-------7------------|
E|-5----------------------|-5----5-----------6-----|-5----------------------|-8---7-------5-------5------------|

E|----------------------------------|----------------------------------|----------------------------------|
B|----------------------------------|----------------------------------|----------------------------------|
G|---------%-------%---------%------|---------%-------%---------%------|---------%-------%---------%------|
D|-10--9---%---7---%---7-----%------|-10--9---%---7---%---7-----%------|-10--9---%---7---%---7-----%------|
A|-10--9-------7-------7------------|-10--9-------7-------7------------|-10--9-------7-------7------------|
E|-8---7-------5-------5------------|-8---7-------5-------5------------|-8---7-------5-------5------------|

E|------------------------|-----------------------------------------------------------|
B|------------------------|-----------------------------------------------------------|
G|-----------%------------|------------------------------------------------------%----|
D|-7----7----%------8-----|-7---------------------5---7---5-------5----7---7-----%----|
A|-7----7-----------8-----|-7----3---5----5---7---------------7-----------------------|
E|-5----5-----------6-----|-5---------------------------------------------------------|

E|--------------------------5---8---5---8---5---------------------------------|---------5------------------------------------------------------|
B|----------------------------------------------8---5-----------8---5---------|-----5--------8---5---------------------------------------------|
G|-%----------------5---7-------------------------------7---5------------%----|-7--------------------7----5---7---5-------5---%---7---%---7----|
D|-%----7---5---7--------------------------------------------------------%----|---------------------------------------7-------%-------%--------|
A|----------------------------------------------------------------------------|----------------------------------------------------------------|
E|----------------------------------------------------------------------------|----------------------------------------------------------------|

E|---------------5------------------------------------------|-----------------------------------------------------------|
B|-----------5-------8---5----------------------------------|-----------------------------------------------------------|
G|-%-----7-------------------7----5---7----7---5-------5----|-------------%-----------5---%---------------%-------------|
D|-%-----------------------------------------------7--------|-7---5-------%---5---7-------%---7---5-------%---5---7-----|
A|----------------------------------------------------------|---------7-------------------------------7-----------------|
E|----------------------------------------------------------|-----------------------------------------------------------|

E|--------------------------------------------------|------------------------------------------|
B|--------------------------------------------------|------------------------------------------|
G|---------------------------------------------5----|-------------%-------%--------------%-----|
D|---------5----------------------5----5---7--------|-7---5-------%---7---%---7----7-----%-----|
A|-5---7--------5----3----5---7---------------------|---------7--------------------------------|
E|--------------------------------------------------|------------------------------------------|

E|------------------------|------------------------|------------------------|------------------------|
B|------------------------|------------------------|------------------------|------------------------|
G|-----------%------------|------%----%-----%------|-----------%------------|------%----%-----%------|
D|-7----7----%------8-----|-7----%----%-----%------|-7----7----%------8-----|-7----%----%-----%------|
A|-7----7-----------8-----|-7----------------------|-7----7-----------8-----|-7----------------------|
E|-5----5-----------6-----|-5----------------------|-5----5-----------6-----|-5----------------------|

E|------------------------|------------------------|------------------------|------------------------|
B|------------------------|------------------------|------------------------|------------------------|
G|-----------%------------|------%----%-----%------|-----------%------------|------%----%-----%------|
D|-7----7----%------8-----|-7----%----%-----%------|-7----7----%------8-----|-7----%----%-----%------|
A|-7----7-----------8-----|-7----------------------|-7----7-----------8-----|-7----------------------|
E|-5----5-----------6-----|-5----------------------|-5----5-----------6-----|-5----------------------|

E|------------------------|------------------------|------------------------|----------------------------------------------------------|
B|------------------------|------------------------|------------------------|----------------------------------------------------------|
G|-----------%------------|------%----%-----5------|-----------%------------|------%----%-----------------------------------------%----|
D|-7----7----%------8-----|-7----%----%------------|-7----7----%------8-----|-7----%----%-----5--7--5--7--5--7--5--7--5--7--5-----%----|
A|-7----7-----------8-----|-7----------------------|-7----7-----------8-----|-7------------------------------------------------7-------|
E|-5----5-----------6-----|-5----------------------|-5----5-----------6-----|-5--------------------------------------------------------|

E|------------------------|------------------------|------------------------|------------------------|
B|------------------------|------------------------|------------------------|------------------------|
G|-----------%------------|------%----%-----5------|-----------%------------|------%----%-----%------|
D|-7----7----%------8-----|-7----%----%------------|-7----7----%------8-----|-7----%----%-----%------|
A|-7----7-----------8-----|-7----------------------|-7----7-----------8-----|-7----------------------|
E|-5----5-----------6-----|-5----------------------|-5----5-----------6-----|-5----------------------|

E|----------------------------------|----------------------------------|----------------------------------|
B|----------------------------------|----------------------------------|----------------------------------|
G|---------%-------%---------%------|---------%-------%---------%------|---------%-------%---------%------|
D|-10--9---%---7---%---7-----%------|-10--9---%---7---%---7-----%------|-10--9---%---7---%---7-----%------|
A|-10--9-------7-------7------------|-10--9-------7-------7------------|-10--9-------7-------7------------|
E|-8---7-------5-------5------------|-8---7-------5-------5------------|-8---7-------5-------5------------|

E|----------------------------------|-----------------------------|--------------------------------------------------------|
B|----------------------------------|-----------------------------|------5-------5-----------------------------------------|
G|---------%-------%---------%------|------------------%----%-----|-%----5---%---5-------------------------------------%---|
D|-10--9---%---7---%---7-----%------|-7-----10----7----%----%-----|-%--------%-----------------5-----------------------%---|
A|-10--9-------7-------7------------|-7-----10----7---------------|--------------------5---7-------7---5---3---------------|
E|-8---7-------5-------5------------|-5-----8-----5---------------|--------------------------------------------5---3-------|

E|-----------------------------|--------------------------------------------------------|
B|-----------------------------|------5-------5-----------------------------------------|
G|------------------%----%-----|-%----5---%---5-------------------------------------%---|
D|-7-----10----7----%----%-----|-%--------%-----------------5-----------------------%---|
A|-7-----10----7---------------|--------------------5---7-------7---5---3---------------|
E|-5-----8-----5---------------|--------------------------------------------5---3-------|

E|-----------------------------|--------------------------------------------------------|
B|-----------------------------|------5-------5-----------------------------------------|
G|------------------%----%-----|-%----5---%---5-------------------------------------%---|
D|-7-----10----7----%----%-----|-%--------%-----------------5-----------------------%---|
A|-7-----10----7---------------|--------------------5---7-------7---5---3---------------|
E|-5-----8-----5---------------|--------------------------------------------5---3-------|

E|-----------------------------|--------------------------------------------------------|
B|-----------------------------|------5-------5-----------------------------------------|
G|------------------%----%-----|-%----5---%---5-------------------------------------%---|
D|-7-----10----7----%----%-----|-%--------%-----------------5-----------------------%---|
A|-7-----10----7---------------|--------------------5---7-------7---5---3---------------|
E|-5-----8-----5---------------|--------------------------------------------5---3-------|

E|--------------------------------------------------------|--------------------------------------------------------|
B|------5-------5-----------------------------------------|------5-------5-----------------------------------------|
G|-%----5---%---5-------------------------------------%---|-%----5---%---5-------------------------------------%---|
D|-%--------%-----------------5-----------------------%---|-%--------%-----------------5-----------------------%---|
A|--------------------5---7-------7---5---3---------------|--------------------5---7-------7---5---3---------------|
E|--------------------------------------------5---3-------|--------------------------------------------5---3-------|

E|------------------------|
B|------------------------|
G|------%----%-----%------|
D|------%----%-----%------|
A|------------------------|
E|-5----------------------|
Black Sabbath - The Wizard
Black Sabbath - The Wizard.gp3