Black Sabbath - Time Machine

Black Sabbath



Title: Time Machine
Album: 
Artist: Black Sabbath
Author: Black Sabbath

Track 1: Lead Guitar
D#|----------------------------|--------------------|---------------------------------|
A#|----------------------------|--------------------|---------------------------------|
F#|----------------5----5------|-5------4-----------|---------------------------------|
C#|----------------5----5------|-5------4-----------|---------------------------------|
G#|-4----4----4----3----3------|-3------2------0----|-4----4----4----3------4----4----|
D#|-2----2----2----------------|--------------------|-2----2----2----1------2----2----|

D#|-----------------------------------------|----------------------------|---------------|
A#|-----------------------------------------|----------------------------|---------------|
F#|-----------------------------------------|----------------5----5------|-5------4------|
C#|-----------------------------------------|----------------5----5------|-5------4------|
G#|-4----4----4----4----4----4----4----4----|-4----4----4----3----3------|-3------2------|
D#|-2----2----2----2----2----2----2----2----|-2----2----2----------------|---------------|

D#|-------------------------------------|-------------------------------------|-------------------------------------|
A#|-------------------------------------|-------------------------------------|-------------------------------------|
F#|----------------2--------------------|---------------------4----2----4-----|----------------2--------------------|
C#|----------------2--------------------|---------------------4----2----4-----|----------------2--------------------|
G#|-4----4----4----------4----4----4----|-4----4----4----4--------------------|-4----4----4----------4----4----4----|
D#|-2----2----2----------2----2----2----|-2----2----2----2--------------------|-2----2----2----------2----2----2----|

D#|-----------------------------------------|-------------------------------------|
A#|-----------------------------------------|-------------------------------------|
F#|-----------------------------------------|----------------2--------------------|
C#|-----------------------------------------|----------------2--------------------|
G#|-4----4----4----4----4-------------------|-4----4----4----------4----4----4----|
D#|-2----2----2----2----2----0----0----1----|-2----2----2----------2----2----2----|

D#|-------------------------------------|-------------------------------------|-----------------------------------------|
A#|-------------------------------------|-------------------------------------|-----------------------------------------|
F#|---------------------4----2----4-----|----------------2--------------------|-----------------------------------------|
C#|---------------------4----2----4-----|----------------2--------------------|-----------------------------------------|
G#|-4----4----4----4--------------------|-4----4----4----------4----4----4----|-4-------------------4----3----2----0----|
D#|-2----2----2----2--------------------|-2----2----2----------2----2----2----|-2----0----1----2------------------------|

D#|-------------------------------------|-------------------------------------|-------------------------------------|
A#|-------------------------------------|-------------------------------------|-------------------------------------|
F#|----------------2--------------------|---------------------4----2----4-----|----------------2--------------------|
C#|----------------2--------------------|---------------------4----2----4-----|----------------2--------------------|
G#|-4----4----4----------4----4----4----|-4----4----4----4--------------------|-4----4----4----------4----4----4----|
D#|-2----2----2----------2----2----2----|-2----2----2----2--------------------|-2----2----2----------2----2----2----|

D#|-----------------------------------------|-------------------------------------|
A#|-----------------------------------------|-------------------------------------|
F#|-----------------------------------------|----------------2--------------------|
C#|-----------------------------------------|----------------2--------------------|
G#|-4----4----4----4----4-------------------|-4----4----4----------4----4----4----|
D#|-2----2----2----2----2----0----0----1----|-2----2----2----------2----2----2----|

D#|-------------------------------------|-------------------------------------|-----------------------------------------|
A#|-------------------------------------|-------------------------------------|-----------------------------------------|
F#|---------------------4----2----4-----|----------------2--------------------|-----------------------------------------|
C#|---------------------4----2----4-----|----------------2--------------------|-----------------------------------------|
G#|-4----4----4----4--------------------|-4----4----4----------4----4----4----|-4-------------------4----3----2----0----|
D#|-2----2----2----2--------------------|-2----2----2----------2----2----2----|-2----0----1----2------------------------|

D#|------------------------|---------------------|-------------------------------------|
A#|------------------------|---------------------|-------------------------------------|
F#|-2-----2----2------5----|-5------4------------|----------------2--------------------|
C#|-2-----2----2------5----|-5------4------5-----|----------------2--------------------|
G#|-0-----0----0------3----|-3------2------5-----|-4----4----4----------4----4----4----|
D#|------------------------|---------------3-----|-2----2----2----------2----2----2----|

D#|-------------------------------------|-------------------------------------|-----------------------------------------|
A#|-------------------------------------|-------------------------------------|-----------------------------------------|
F#|---------------------4----2----4-----|----------------2--------------------|-----------------------------------------|
C#|---------------------4----2----4-----|----------------2--------------------|-----------------------------------------|
G#|-4----4----4----4--------------------|-4----4----4----------4----4----4----|-4----4----4----4----4-------------------|
D#|-2----2----2----2--------------------|-2----2----2----------2----2----2----|-2----2----2----2----2----0----0----1----|

D#|-------------------------------------|-------------------------------------|-------------------------------------|
A#|-------------------------------------|-------------------------------------|-------------------------------------|
F#|----------------2--------------------|---------------------4----2----4-----|----------------2--------------------|
C#|----------------2--------------------|---------------------4----2----4-----|----------------2--------------------|
G#|-4----4----4----------4----4----4----|-4----4----4----4--------------------|-4----4----4----------4----4----4----|
D#|-2----2----2----------2----2----2----|-2----2----2----2--------------------|-2----2----2----------2----2----2----|

D#|-----------------------------------------|-------------------------------------|
A#|-----------------------------------------|-------------------------------------|
F#|-----------------------------------------|----------------2--------------------|
C#|-----------------------------------------|----------------2--------------------|
G#|-4-------------------4----3----2----0----|-4----4----4----------4----4----4----|
D#|-2----0----1----2------------------------|-2----2----2----------2----2----2----|

D#|-------------------------------------|-------------------------------------|-----------------------------------------|
A#|-------------------------------------|-------------------------------------|-----------------------------------------|
F#|---------------------4----2----4-----|----------------2--------------------|-----------------------------------------|
C#|---------------------4----2----4-----|----------------2--------------------|-----------------------------------------|
G#|-4----4----4----4--------------------|-4----4----4----------4----4----4----|-4----4----4----4----4-------------------|
D#|-2----2----2----2--------------------|-2----2----2----------2----2----2----|-2----2----2----2----2----0----0----1----|

D#|-------------------------------------|-------------------------------------|-------------------------------------|
A#|-------------------------------------|-------------------------------------|-------------------------------------|
F#|----------------2--------------------|---------------------4----2----4-----|----------------2--------------------|
C#|----------------2--------------------|---------------------4----2----4-----|----------------2--------------------|
G#|-4----4----4----------4----4----4----|-4----4----4----4--------------------|-4----4----4----------4----4----4----|
D#|-2----2----2----------2----2----2----|-2----2----2----2--------------------|-2----2----2----------2----2----2----|

D#|-----------------------------------------|---------------------|---------------------|
A#|-----------------------------------------|---------------------|---------------------|
F#|-----------------------------------------|-9------9------9-----|-8------8------8-----|
C#|-----------------------------------------|-9------9------9-----|-8------8------8-----|
G#|-4-------------------4----3----2----0----|-7------7------7-----|-6------6------6-----|
D#|-2----0----1----2------------------------|---------------------|---------------------|

D#|---------------------|---------------------|---------------------|---------------------|
A#|---------------------|---------------------|---------------------|---------------------|
F#|-7------7------7-----|-6------6------6-----|-9------9------9-----|-8------8------8-----|
C#|-7------7------7-----|-6------6------6-----|-9------9------9-----|-8------8------8-----|
G#|-5------5------5-----|-4------4------4-----|-7------7------7-----|-6------6------6-----|
D#|---------------------|---------------------|---------------------|---------------------|

D#|---------------------|---------------|-----------------------------------------|
A#|---------------------|---------------|-----------------------------------------|
F#|-7------7------7-----|-6-------------|-----------------------------------------|
C#|-7------7------7-----|-6------7------|-----------------------------------------|
G#|-5------5------5-----|-4------7------|-4---------4----0----4----4----4----4----|
D#|---------------------|--------5------|-2----0----2---------2----2----2----2----|

D#|-----------------------------------------|-----------------------------------------|
A#|-----------------------------------------|-----------------------------------------|
F#|-----------------------------------------|------------------------------------2----|
C#|-----------------------------------------|------------------------------------2----|
G#|-4----4----4----4----4----4----4----0----|-4---------4----0----4----4----4----0----|
D#|-2----2----2----2----2----2----2---------|-2----0----2---------2----2----2---------|

D#|-----------------------------|---------------------|-------------------------------------|
A#|-----------------------------|---------------------|-------------------------------------|
F#|-2--------------5------4-----|-9------9------9-----|-9-----------------------------------|
C#|-2--------------5------4-----|-9------9------9-----|-9-------------------7----6----------|
G#|-0---------4----3------2-----|-7------7------7-----|-7---------5----7--------------7-----|
D#|------0----2-----------------|---------------------|------7------------------------------|

D#|---------------------|-------------------------------------|---------------------|
A#|---------------------|-------------------------------------|---------------------|
F#|-7------7------7-----|-7-----------------------------------|-6------6------6-----|
C#|-7------7------7-----|-7-------------------7----6----------|-6------6------6-----|
G#|-5------5------5-----|-5---------5----7--------------7-----|-4------4------4-----|
D#|---------------------|------7------------------------------|---------------------|

D#|-------------------------------------|---------------------|-------------------------------------|
A#|-------------------------------------|---------------------|-------------------------------------|
F#|-6-----------------------------------|-2------2------4-----|-4-----------------------------------|
C#|-6-------------------7----6----------|-2------2------4-----|-4-------------------7----6----------|
G#|-4---------5----7--------------7-----|-0------0------2-----|-2---------5----7--------------7-----|
D#|------7------------------------------|---------------------|------7------------------------------|

D#|-----------------------------------------|-----------------------------------------|
A#|-----------------------------------------|-----------------------------------------|
F#|-----------------------------------------|-----------------------------------------|
C#|-----------------------------------------|------------------------------------4----|
G#|------7----6---------6----5---------5----|-4---------4----3---------3----2----4----|
D#|-0--------------0--------------0---------|------0--------------0--------------2----|

D#|---------|---------|---------|---------|---------|---------|---------|--------------------|
A#|---------|---------|---------|---------|---------|---------|---------|--------------------|
F#|---------|---------|---------|---------|-%-------|-%-------|-%-------|-%------%-----12----|
C#|-4-------|-4-------|-4-------|-4-------|-%-------|-%-------|-%-------|-%------%-----12----|
G#|-4-------|-4-------|-4-------|-4-------|---------|---------|---------|--------------------|
D#|-2-------|-2-------|-2-------|-2-------|---------|---------|---------|--------------------|

D#|-------------------------------------|-------------------------------------|-------------------|
A#|-------------------------------------|-------------------------------------|-------------------|
F#|-4--------------2----------2-----6---|-%-----4-----2-----4-----2-----4-----|-4-------%----4----|
C#|-4----2----4---------4---------------|-%-----------------------------------|---------%---------|
G#|-------------------------------------|-------------------------------------|-------------------|
D#|-------------------------------------|-------------------------------------|-------------------|

D#|---------------------------------|-------------------------------------|-------------------------------------|
A#|---------------------------------|-4-----2----4----2---------2----4----|-2-----------------------------------|
F#|-4----2----4----2----------------|-4-----2----4----2---------2----4----|-2----2----4----2--------------------|
C#|---------------------4-----4-----|----------------------4--------------|---------------------4-----2----4----|
G#|---------------------------------|-------------------------------------|-------------------------------------|
D#|---------------------------------|-------------------------------------|-------------------------------------|

D#|-----------------------------------------|-----------------------------|-------------------|
A#|-----------------------------------------|-----------------------------|-17------17---14---|
F#|---------------------2---------2----4----|-4----2---------4-----2------|-------------------|
C#|-----------2----4---------4--------------|-----------4-----------------|-------------------|
G#|-2----4----------------------------------|-----------------------------|-------------------|
D#|-----------------------------------------|-----------------------------|-------------------|

D#|------------------------------|-------------------------------------|--------------------------|
A#|-17----17-----17----17---14---|-17----17----14----17----------------|--------------------------|
F#|------------------------------|-------------------------16----14----|--------------------------|
C#|------------------------------|-------------------------------------|-16----14-----------------|
G#|------------------------------|-------------------------------------|-------------17----14-----|
D#|------------------------------|-------------------------------------|--------------------------|

D#|--------------------------------------------|--------------------------------------------------|
A#|---------------------------------------14---|-17--14-------14---17--14-------14---17--14-------|
F#|----------------------------------16--------|---------16----------------16----------------16---|
C#|-----------14---16---16--14--14-------------|--------------------------------------------------|
G#|-14---16------------------------------------|--------------------------------------------------|
D#|--------------------------------------------|--------------------------------------------------|

D#|-16--14--16--14--16--14--16--14--16--14--16--14--14--16--14-------14--16--14-------|
A#|-------------------------------------------------------------16---------------16---|
F#|-----------------------------------------------------------------------------------|
C#|-----------------------------------------------------------------------------------|
G#|-----------------------------------------------------------------------------------|
D#|-----------------------------------------------------------------------------------|

D#|-14--16--14------------14---16----17----16---17---|-19------|-19----16--------------------------------|
A#|-------------16---16------------------------------|---------|-------------17---17---14----17----------|
F#|--------------------------------------------------|---------|-----------------------------------16----|
C#|--------------------------------------------------|---------|-----------------------------------------|
G#|--------------------------------------------------|---------|-----------------------------------------|
D#|--------------------------------------------------|---------|-----------------------------------------|

D#|-----------------------------------------|---------------------|-------------------------------------|
A#|-14--------------------------------------|---------------------|-------------------------------------|
F#|-------16----14--------14----------------|---------------------|----------------2--------------------|
C#|------------------16---------16----14----|---------------------|----------------2--------------------|
G#|-----------------------------------------|-14-----14-----3-----|-4----4----4----------4----4----4----|
D#|-----------------------------------------|---------------------|-2----2----2----------2----2----2----|

D#|-------------------------------------|-------------------------------------|-----------------------------------------|
A#|-------------------------------------|-------------------------------------|-----------------------------------------|
F#|---------------------4----2----4-----|----------------2--------------------|-----------------------------------------|
C#|---------------------4----2----4-----|----------------2--------------------|-----------------------------------------|
G#|-4----4----4----4--------------------|-4----4----4----------4----4----4----|-4----4----4----4----4-------------------|
D#|-2----2----2----2--------------------|-2----2----2----------2----2----2----|-2----2----2----2----2----0----0----1----|

D#|-------------------------------------|-------------------------------------|-------------------------------------|
A#|-------------------------------------|-------------------------------------|-------------------------------------|
F#|----------------2--------------------|---------------------4----2----4-----|----------------2--------------------|
C#|----------------2--------------------|---------------------4----2----4-----|----------------2--------------------|
G#|-4----4----4----------4----4----4----|-4----4----4----4--------------------|-4----4----4----------4----4----4----|
D#|-2----2----2----------2----2----2----|-2----2----2----2--------------------|-2----2----2----------2----2----2----|

D#|-----------------------------------------|-------------------------------------|
A#|-----------------------------------------|-------------------------------------|
F#|-----------------------------------------|----------------2--------------------|
C#|-----------------------------------------|----------------2--------------------|
G#|-4-------------------4----3----2----0----|-4----4----4----------4----4----4----|
D#|-2----0----1----2------------------------|-2----2----2----------2----2----2----|

D#|-------------------------------------|-------------------------------------|-----------------------------------------|
A#|-------------------------------------|-------------------------------------|-----------------------------------------|
F#|---------------------4----2----4-----|----------------2--------------------|-----------------------------------------|
C#|---------------------4----2----4-----|----------------2--------------------|-----------------------------------------|
G#|-4----4----4----4--------------------|-4----4----4----------4----4----4----|-4----4----4----4----4-------------------|
D#|-2----2----2----2--------------------|-2----2----2----------2----2----2----|-2----2----2----2----2----0----0----1----|

D#|-------------------------------------|-------------------------------------|-------------------------------------|
A#|-------------------------------------|-------------------------------------|-------------------------------------|
F#|----------------2--------------------|---------------------4----2----4-----|----------------2--------------------|
C#|----------------2--------------------|---------------------4----2----4-----|----------------2--------------------|
G#|-4----4----4----------4----4----4----|-4----4----4----4--------------------|-4----4----4----------4----4----4----|
D#|-2----2----2----------2----2----2----|-2----2----2----2--------------------|-2----2----2----------2----2----2----|

D#|-----------------------------------------|---------------------|---------------------|
A#|-----------------------------------------|---------------------|---------------------|
F#|-----------------------------------------|-9------9------9-----|-8------8------8-----|
C#|-----------------------------------------|-9------9------9-----|-8------8------8-----|
G#|-4-------------------4----3----2----0----|-7------7------7-----|-6------6------6-----|
D#|-2----0----1----2------------------------|---------------------|---------------------|

D#|---------------------|---------------------|---------------------|---------------------|
A#|---------------------|---------------------|---------------------|---------------------|
F#|-7------7------7-----|-6------6------6-----|-9------9------9-----|-8------8------8-----|
C#|-7------7------7-----|-6------6------6-----|-9------9------9-----|-8------8------8-----|
G#|-5------5------5-----|-4------4------4-----|-7------7------7-----|-6------6------6-----|
D#|---------------------|---------------------|---------------------|---------------------|

D#|---------------------|---------------|-----------------------------------------|
A#|---------------------|---------------|-----------------------------------------|
F#|-7------7------7-----|-6-------------|-----------------------------------------|
C#|-7------7------7-----|-6------7------|-----------------------------------------|
G#|-5------5------5-----|-4------7------|-4---------4----0----4----4----4----4----|
D#|---------------------|--------5------|-2----0----2---------2----2----2----2----|

D#|-----------------------------------------|-----------------------------------------|
A#|-----------------------------------------|-----------------------------------------|
F#|-----------------------------------------|------------------------------------2----|
C#|-----------------------------------------|------------------------------------2----|
G#|-4----4----4----4----4----4----4----0----|-4---------4----0----4----4----4----0----|
D#|-2----2----2----2----2----2----2---------|-2----0----2---------2----2----2---------|

D#|-----------------------------|---------------------|-------------------------------------|
A#|-----------------------------|---------------------|-------------------------------------|
F#|-2--------------5------4-----|-9------9------9-----|-9-----------------------------------|
C#|-2--------------5------4-----|-9------9------9-----|-9-------------------7----6----------|
G#|-0---------4----3------2-----|-7------7------7-----|-7---------5----7--------------7-----|
D#|------0----2-----------------|---------------------|------7------------------------------|

D#|---------------------|-------------------------------------|---------------------|
A#|---------------------|-------------------------------------|---------------------|
F#|-7------7------7-----|-7-----------------------------------|-6------6------6-----|
C#|-7------7------7-----|-7-------------------7----6----------|-6------6------6-----|
G#|-5------5------5-----|-5---------5----7--------------7-----|-4------4------4-----|
D#|---------------------|------7------------------------------|---------------------|

D#|-------------------------------------|---------------------|-------------------------------------|
A#|-------------------------------------|---------------------|-------------------------------------|
F#|-6-----------------------------------|-2------2------4-----|-4-----------------------------------|
C#|-6-------------------7----6----------|-2------2------4-----|-4-------------------7----6----------|
G#|-4---------5----7--------------7-----|-0------0------2-----|-2---------5----7--------------7-----|
D#|------7------------------------------|---------------------|------7------------------------------|

D#|---------------------|-------------------------------------|---------------------|
A#|---------------------|-------------------------------------|---------------------|
F#|-9------9------9-----|-9-----------------------------------|-7------7------7-----|
C#|-9------9------9-----|-9-------------------7----6----------|-7------7------7-----|
G#|-7------7------7-----|-7---------5----7--------------7-----|-5------5------5-----|
D#|---------------------|------7------------------------------|---------------------|

D#|-------------------------------------|---------------------|-------------------------------------|
A#|-------------------------------------|---------------------|-------------------------------------|
F#|-7-----------------------------------|-6------6------6-----|-6-----------------------------------|
C#|-7-------------------7----6----------|-6------6------6-----|-6-------------------7----6----------|
G#|-5---------5----7--------------7-----|-4------4------4-----|-4---------5----7--------------7-----|
D#|------7------------------------------|---------------------|------7------------------------------|

D#|---------------------|-------------------------------------|-----------------------------------------|
A#|---------------------|-------------------------------------|-----------------------------------------|
F#|-2------2------4-----|-4-----------------------------------|-----------------------------------------|
C#|-2------2------4-----|-4-------------------7----6----------|-----------------------------------------|
G#|-0------0------2-----|-2---------5----7--------------7-----|------7----6---------6----5---------5----|
D#|---------------------|------7------------------------------|-0--------------0--------------0---------|

D#|-----------------------------------------|---------|---------|----------------------------|
A#|-----------------------------------------|---------|---------|----------------------------|
F#|-----------------------------------------|---------|---------|----------------5----5------|
C#|------------------------------------4----|-4-------|-4-------|----------------5----5------|
G#|-4---------4----3---------3----2----4----|-4-------|-4-------|-4----4----4----3----3------|
D#|------0--------------0--------------2----|-2-------|-2-------|-2----2----2----------------|

D#|--------------------|---------------------------------|-----------------------------------------|
A#|--------------------|---------------------------------|-----------------------------------------|
F#|-5------4-----------|---------------------------------|-----------------------------------------|
C#|-5------4-----------|---------------------------------|-----------------------------------------|
G#|-3------2------0----|-4----4----4----3------4----4----|-4----4----4----4----4----4----4----4----|
D#|--------------------|-2----2----2----1------2----2----|-2----2----2----2----2----2----2----2----|

D#|----------------------------|---------|-----------------------------|---------|
A#|----------------------------|---------|-----------------------------|---------|
F#|----------------5----5------|-5-------|-----------------------------|-%-------|
C#|----------------5----5------|-5-------|-----------------------------|-%-------|
G#|-4----4----4----3----3------|-3-------|-4----4----4----3------4-----|---------|
D#|-2----2----2----------------|---------|-2----2----2----1------2-----|---------|
Black Sabbath - Time Machine
Black Sabbath - Time Machine.gp3