Black Sabbath - Too Late (3)

Black Sabbath - Too Late (3)

Black Sabbath



Title: Too late
Album: Dehumanizer
Artist: Black Sabbath
Author: Voodz

Track 1: Guitar 1
E|----------------3----------0---------|-----------------------------------------|----------------3----------0---------|
B|-----------0--------------------0----|-----------0--------------0--------------|-----------0--------------------0----|
G|------0------------------------------|------4--------------0-------------------|------0------------------------------|
D|-2--------------------2--------------|-5--------------4-------------------4----|-2--------------------2--------------|
A|-------------------------------------|-------------------------------5---------|-------------------------------------|
E|-------------------------------------|-----------------------------------------|-------------------------------------|

E|-------------------------------------|----------------0--------------------|----------------0--------------------|
B|-----------0--------------0----------|----------------------0--------------|----------------------0--------------|
G|------4--------------0---------------|-----------2---------------2---------|-----------0---------------0---------|
D|-5--------------4--------------------|------2-------------------------2----|------2-------------------------2----|
A|-------------------------------5-----|-4-----------------------------------|-3-----------------------------------|
E|-------------------------------------|-------------------------------------|-------------------------------------|

E|----------------3----------0---------|-----------------------------------------|----------------3----------0---------|
B|-----------0--------------------0----|-----------0--------------0--------------|-----------0--------------------0----|
G|------0------------------------------|------4--------------0-------------------|------0------------------------------|
D|-2--------------------2--------------|-5--------------4-------------------4----|-2--------------------2--------------|
A|-------------------------------------|-------------------------------5---------|-------------------------------------|
E|-------------------------------------|-----------------------------------------|-------------------------------------|

E|-------------------------------------|----------------0--------------------|----------------0--------------------|
B|-----------0--------------0----------|----------------------0--------------|----------------------0--------------|
G|------4--------------0---------------|-----------2---------------2---------|-----------0---------------0---------|
D|-5--------------4--------------------|------2-------------------------2----|------2-------------------------2----|
A|-------------------------------5-----|-4-----------------------------------|-3-----------------------------------|
E|-------------------------------------|-------------------------------------|-------------------------------------|

E|---------------------0-------------------|---------------------0---------------|--------------------------0--------------|
B|----------------0------------------------|----------------0----------0---------|---------------------0-------------------|
G|-----------0-----------------------------|-----------0--------------------0----|----------------0------------------------|
D|------2----------------------------------|------2------------------------------|-2---------2-----------------------------|
A|------------------------------------5----|-4-----------------------------------|-----------------------------------------|
E|-0------------------------0----2---------|-------------------------------------|------0------------------------0----2----|

E|--------------------------0----------|-------------------------------0---------|-------------------------------------|
B|---------------------0----------0----|--------------------------0--------------|--------------------------0----------|
G|----------------0--------------------|-0-------------------0-------------------|---------------------2---------------|
D|-----------2-------------------------|------2---------2------------------------|----------------1--------------------|
A|-4----3------------------------------|-----------------------------------------|------3----2-------------------------|
E|-------------------------------------|-----------0------------------------0----|-2------------------------------1----|

E|------------------------|---------|----------------3----------0---------|-----------------------------------------|
B|------------------------|---------|-----------0--------------------0----|-----------0--------------0--------------|
G|------%------%-----%----|-%-------|------0------------------------------|------4--------------0-------------------|
D|------%------%-----%----|-%-------|-2--------------------2--------------|-5--------------4-------------------4----|
A|------------------------|---------|-------------------------------------|-------------------------------5---------|
E|-0----------------------|---------|-------------------------------------|-----------------------------------------|

E|----------------3----------0---------|-------------------------------------|----------------0--------------------|
B|-----------0--------------------0----|-----------0--------------0----------|----------------------0--------------|
G|------0------------------------------|------4--------------0---------------|-----------2---------------2---------|
D|-2--------------------2--------------|-5--------------4--------------------|------2-------------------------2----|
A|-------------------------------------|-------------------------------5-----|-4-----------------------------------|
E|-------------------------------------|-------------------------------------|-------------------------------------|

E|----------------0--------------------|----------------3----------0---------|-----------------------------------------|
B|----------------------0--------------|-----------0--------------------0----|-----------0--------------0--------------|
G|-----------0---------------0---------|------0------------------------------|------4--------------0-------------------|
D|------2-------------------------2----|-2--------------------2--------------|-5--------------4-------------------4----|
A|-3-----------------------------------|-------------------------------------|-------------------------------5---------|
E|-------------------------------------|-------------------------------------|-----------------------------------------|

E|----------------3----------0---------|-------------------------------------|----------------0--------------------|
B|-----------0--------------------0----|-----------0--------------0----------|----------------------0--------------|
G|------0------------------------------|------4--------------0---------------|-----------2---------------2---------|
D|-2--------------------2--------------|-5--------------4--------------------|------2-------------------------2----|
A|-------------------------------------|-------------------------------5-----|-4-----------------------------------|
E|-------------------------------------|-------------------------------------|-------------------------------------|

E|----------------0--------------------|---------|---------|---------|---------|---------|
B|----------------------0--------------|---------|---------|---------|---------|---------|
G|-----------0---------------0---------|-%-------|-%-------|-%-------|-%-------|-%-------|
D|------2-------------------------2----|-%-------|-%-------|-%-------|-%-------|-%-------|
A|-3-----------------------------------|---------|---------|---------|---------|---------|
E|-------------------------------------|---------|---------|---------|---------|---------|

E|---------|---------|---------|---------|---------|---------|---------|---------|---------|
B|---------|---------|---------|---------|---------|---------|---------|---------|---------|
G|-%-------|-%-------|-%-------|-%-------|-%-------|-%-------|-%-------|-%-------|-%-------|
D|-%-------|-%-------|-%-------|-%-------|-%-------|-%-------|-%-------|-%-------|-%-------|
A|---------|---------|---------|---------|---------|---------|---------|---------|---------|
E|---------|---------|---------|---------|---------|---------|---------|---------|---------|

E|---------|---------|---------|---------|---------|---------|-------|---------|---------|
B|---------|---------|---------|---------|---------|---------|-------|---------|---------|
G|-%-------|-%-------|-%-------|-%-------|-%-------|-%-------|-%-----|-%-------|-%-------|
D|-%-------|-%-------|-%-------|-%-------|-%-------|-%-------|-%-----|-%-------|-%-------|
A|---------|---------|---------|---------|---------|---------|-------|---------|---------|
E|---------|---------|---------|---------|---------|---------|-------|---------|---------|

E|---------|-------|---------|---------|---------|---------|---------|---------|---------|
B|---------|-------|---------|---------|---------|---------|---------|---------|---------|
G|-%-------|-%-----|-%-------|-%-------|-%-------|-%-------|-%-------|-%-------|-%-------|
D|-%-------|-%-----|-%-------|-%-------|-%-------|-%-------|-%-------|-%-------|-%-------|
A|---------|-------|---------|---------|---------|---------|---------|---------|---------|
E|---------|-------|---------|---------|---------|---------|---------|---------|---------|

E|---------|---------|---------|---------|---------|---------|---------|---------|---------|
B|---------|---------|---------|---------|---------|---------|---------|---------|---------|
G|-%-------|-%-------|-%-------|-%-------|-%-------|-%-------|-%-------|-%-------|-%-------|
D|-%-------|-%-------|-%-------|-%-------|-%-------|-%-------|-%-------|-%-------|-%-------|
A|---------|---------|---------|---------|---------|---------|---------|---------|---------|
E|---------|---------|---------|---------|---------|---------|---------|---------|---------|

E|---------|---------|---------|---------|---------|---------|---------|---------|---------|
B|---------|---------|---------|---------|---------|---------|---------|---------|---------|
G|-%-------|-%-------|-%-------|-%-------|-%-------|-%-------|-%-------|-%-------|-%-------|
D|-%-------|-%-------|-%-------|-%-------|-%-------|-%-------|-%-------|-%-------|-%-------|
A|---------|---------|---------|---------|---------|---------|---------|---------|---------|
E|---------|---------|---------|---------|---------|---------|---------|---------|---------|

E|---------|---------|---------|---------|---------|---------|---------|---------|---------|
B|---------|---------|---------|---------|---------|---------|---------|---------|---------|
G|-%-------|-%-------|-%-------|-%-------|-%-------|-%-------|-%-------|-%-------|-%-------|
D|-%-------|-%-------|-%-------|-%-------|-%-------|-%-------|-%-------|-%-------|-%-------|
A|---------|---------|---------|---------|---------|---------|---------|---------|---------|
E|---------|---------|---------|---------|---------|---------|---------|---------|---------|

E|---------|----------------3----------0---------|-----------------------------------------|
B|---------|-----------0--------------------0----|-----------0--------------0--------------|
G|-%-------|------0------------------------------|------4--------------0-------------------|
D|-%-------|-2--------------------2--------------|-5--------------4-------------------4----|
A|---------|-------------------------------------|-------------------------------5---------|
E|---------|-------------------------------------|-----------------------------------------|

E|----------------3----------0---------|-------------------------------------|----------------0--------------------|
B|-----------0--------------------0----|-----------0--------------0----------|----------------------0--------------|
G|------0------------------------------|------4--------------0---------------|-----------2---------------2---------|
D|-2--------------------2--------------|-5--------------4--------------------|------2-------------------------2----|
A|-------------------------------------|-------------------------------5-----|-4-----------------------------------|
E|-------------------------------------|-------------------------------------|-------------------------------------|

E|----------------0--------------------|----------------0--------------------|----------------0--------------------|
B|----------------------0--------------|----------------------0--------------|----------------------0--------------|
G|-----------0---------------0---------|-----------0---------------0---------|-----------0---------------0---------|
D|------2-------------------------2----|------2-------------------------2----|------2-------------------------2----|
A|-3-----------------------------------|-1-----------------------------------|-0-----------------------------------|
E|-------------------------------------|-------------------------------------|-------------------------------------|

E|---------|---------|---------|---------|---------|---------|---------|---------|---------|
B|---------|---------|---------|---------|---------|---------|---------|---------|---------|
G|-%-------|-%-------|-%-------|-%-------|-%-------|-%-------|-%-------|-%-------|-%-------|
D|-%-------|-%-------|-%-------|-%-------|-%-------|-%-------|-%-------|-%-------|-%-------|
A|---------|---------|---------|---------|---------|---------|---------|---------|---------|
E|---------|---------|---------|---------|---------|---------|---------|---------|---------|

E|---------|---------|---------|---------|---------|---------|---------|---------|---------|
B|---------|---------|---------|---------|---------|---------|---------|---------|---------|
G|-%-------|-%-------|-%-------|-%-------|-%-------|-%-------|-%-------|-%-------|-%-------|
D|-%-------|-%-------|-%-------|-%-------|-%-------|-%-------|-%-------|-%-------|-%-------|
A|---------|---------|---------|---------|---------|---------|---------|---------|---------|
E|---------|---------|---------|---------|---------|---------|---------|---------|---------|

E|---------|---------|---------|---------|---------|---------|---------|---------|---------|
B|---------|---------|---------|---------|---------|---------|---------|---------|---------|
G|-%-------|-%-------|-%-------|-%-------|-%-------|-%-------|-%-------|-%-------|-%-------|
D|-%-------|-%-------|-%-------|-%-------|-%-------|-%-------|-%-------|-%-------|-%-------|
A|---------|---------|---------|---------|---------|---------|---------|---------|---------|
E|---------|---------|---------|---------|---------|---------|---------|---------|---------|

E|---------|---------|---------|---------|
B|---------|---------|---------|---------|
G|-%-------|-%-------|-%-------|-%-------|
D|-%-------|-%-------|-%-------|-%-------|
A|---------|---------|---------|---------|
E|---------|---------|---------|---------|
Black Sabbath - Too Late (3)
Black Sabbath - Too Late (3).gp4