Black Sabbath - Turn To Stone

Black Sabbath - Turn To Stone

Black Sabbath



Title: Turn To Stone
Album: Seventh Star
Artist: Black Sabbath
Author: 

Track 1: Dist. Guitar 1
D#|---------|---------|---------|---------|---------|---------|---------|---------|
A#|---------|---------|---------|---------|---------|---------|---------|---------|
F#|-%-------|-%-------|-%-------|-%-------|-%-------|-%-------|-%-------|-%-------|
C#|-%-------|-%-------|-%-------|-%-------|-%-------|-%-------|-%-------|-%-------|
G#|---------|---------|---------|---------|---------|---------|---------|---------|
D#|---------|---------|---------|---------|---------|---------|---------|---------|

D#|-----------------------------|-------------------------------------|-----------------------------|
A#|-----------------------------|-------------------------------------|-----------------------------|
F#|-------2-----2----2----7-----|-7-----7----5----5----7----5----7----|-------2-----2----2----7-----|
C#|-------2-----2----2----7-----|-7-----7----5----5----7----5----7----|-------2-----2----2----7-----|
G#|-0---------------------------|-------------------------------------|-0---------------------------|
D#|-----------------------------|-------------------------------------|-----------------------------|

D#|-------------------------------------|-----------------------------|-------------------------------------|
A#|-------------------------------------|-----------------------------|-------------------------------------|
F#|-7-----7----5----5----7----5----7----|-------2-----2----2----7-----|-7-----7----5----5----7----5----7----|
C#|-7-----7----5----5----7----5----7----|-------2-----2----2----7-----|-7-----7----5----5----7----5----7----|
G#|-------------------------------------|-0---------------------------|-------------------------------------|
D#|-------------------------------------|-----------------------------|-------------------------------------|

D#|-------3-----3----3----3-----|-2-------------------|-----------------------------|
A#|-------3-----3----3----3-----|-3-------------------|-----------------------------|
F#|-------2-----2----2----2-----|-2-------------------|-------2-----2----2----7-----|
C#|-0---------------------------|---------------------|-------2-----2----2----7-----|
G#|-----------------------------|--------3------2-----|-0---------------------------|
D#|-----------------------------|---------------------|-----------------------------|

D#|-------------------------------------|-----------------------------|-------------------------------------|
A#|-------------------------------------|-----------------------------|-------------------------------------|
F#|-7-----7----5----5----7----5----7----|-------2-----2----2----7-----|-7-----7----5----5----7----5----7----|
C#|-7-----7----5----5----7----5----7----|-------2-----2----2----7-----|-7-----7----5----5----7----5----7----|
G#|-------------------------------------|-0---------------------------|-------------------------------------|
D#|-------------------------------------|-----------------------------|-------------------------------------|

D#|-----------------------------|-------------------------------------|-------3-----3----3----3-----|
A#|-----------------------------|-------------------------------------|-------3-----3----3----3-----|
F#|-------2-----2----2----7-----|-7-----7----5----5----7----5----7----|-------2-----2----2----2-----|
C#|-------2-----2----2----7-----|-7-----7----5----5----7----5----7----|-0---------------------------|
G#|-0---------------------------|-------------------------------------|-----------------------------|
D#|-----------------------------|-------------------------------------|-----------------------------|

D#|-2-------------------|-----------------------------|-------------------------------------|
A#|-3-------------------|-----------------------------|-------------------------------------|
F#|-2-------------------|-------2-----2----2----7-----|-7-----7----5----5----7----5----7----|
C#|---------------------|-------2-----2----2----7-----|-7-----7----5----5----7----5----7----|
G#|--------3------2-----|-0---------------------------|-------------------------------------|
D#|---------------------|-----------------------------|-------------------------------------|

D#|-----------------------------|-------------------------------------|-----------------------------|
A#|-----------------------------|-------------------------------------|-----------------------------|
F#|-------2-----2----2----7-----|-7-----7----5----5----7----5----7----|-------2-----2----2----7-----|
C#|-------2-----2----2----7-----|-7-----7----5----5----7----5----7----|-------2-----2----2----7-----|
G#|-0---------------------------|-------------------------------------|-0---------------------------|
D#|-----------------------------|-------------------------------------|-----------------------------|

D#|-------------------------------------|-------3-----3----3----3-----|-2-------------------|
A#|-------------------------------------|-------3-----3----3----3-----|-3-------------------|
F#|-7-----7----5----5----7----5----7----|-------2-----2----2----2-----|-2-------------------|
C#|-7-----7----5----5----7----5----7----|-0---------------------------|---------------------|
G#|-------------------------------------|-----------------------------|--------3------2-----|
D#|-------------------------------------|-----------------------------|---------------------|

D#|-----------------------------|-------------------------------------|-----------------------------|
A#|-----------------------------|-------------------------------------|-----------------------------|
F#|-------2-----2----2----7-----|-7-----7----5----5----7----5----7----|-------2-----2----2----7-----|
C#|-------2-----2----2----7-----|-7-----7----5----5----7----5----7----|-------2-----2----2----7-----|
G#|-0---------------------------|-------------------------------------|-0---------------------------|
D#|-----------------------------|-------------------------------------|-----------------------------|

D#|-------------------------------------|-----------------------------|-------------------------------------|
A#|-------------------------------------|-----------------------------|-------------------------------------|
F#|-7-----7----5----5----7----5----7----|-------2-----2----2----7-----|-7-----7----5----5----7----5----7----|
C#|-7-----7----5----5----7----5----7----|-------2-----2----2----7-----|-7-----7----5----5----7----5----7----|
G#|-------------------------------------|-0---------------------------|-------------------------------------|
D#|-------------------------------------|-----------------------------|-------------------------------------|

D#|-------3-----3----3----3-----|-2-------------------|-----------------------------------------|
A#|-------3-----3----3----3-----|-3-------------------|-----------------------------------------|
F#|-------2-----2----2----2-----|-2-------------------|-----------------------------------------|
C#|-0---------------------------|---------------------|-5----5----5----5----5----5----5----5----|
G#|-----------------------------|--------3------2-----|-3----3----3----3----3----3----3----3----|
D#|-----------------------------|---------------------|-----------------------------------------|

D#|-----------------------------------------|-----------------------------------------|
A#|-----------------------------------------|-----------------------------------------|
F#|-----------------------------------------|-----------------------------------------|
C#|-5----5----5----5----5----5----5----5----|-9----9----9----9----9----9----9----9----|
G#|-3----3----3----3----3----3----3----3----|-7----7----7----7----7----7----7----7----|
D#|-----------------------------------------|-----------------------------------------|

D#|-----------------------------------------|-----------------------------------------|
A#|-----------------------------------------|-----------------------------------------|
F#|-----------------------------------------|-----------------------------------------|
C#|-9----9----9----9----9----9----9----9----|-----------------------------------------|
G#|-7----7----7----7----7----7----7----7----|-5----5----5----5----5----5----5----5----|
D#|-----------------------------------------|-3----3----3----3----3----3----3----3----|

D#|-----------------------------------------|-----------------------------------------|
A#|-----------------------------------------|-----------------------------------------|
F#|-----------------------------------------|-----------------------------------------|
C#|-----------------------------------------|-5----5----5----5----5----5----5----5----|
G#|-5----5----5----5----5----5----5----5----|-3----3----3----3----3----3----3----3----|
D#|-3----3----3----3----3----3----3----3----|-----------------------------------------|

D#|---------------------------------|-----------------------------------------|-----------------------------------------|
A#|---------------------------------|-----------------------------------------|-----------------------------------------|
F#|---------------------------------|-----------------------------------------|-----------------------------------------|
C#|-5----5----5----5----------------|-----------------------------------------|-----------------------------------------|
G#|-3----3----3----3----3-----5-----|-7----7----7----7----7----7----7----7----|-7----7----7----7----7----7----7----7----|
D#|---------------------------------|-5----5----5----5----5----5----5----5----|-5----5----5----5----5----5----5----5----|

D#|-----------------------------------------|-----------------------------------------|
A#|-----------------------------------------|-----------------------------------------|
F#|-----------------------------------------|-----------------------------------------|
C#|-7----7----7----7----7----7----7----7----|-7----7----7----7----7----7----7----7----|
G#|-5----5----5----5----5----5----5----5----|-5----5----5----5----5----5----5----5----|
D#|-----------------------------------------|-----------------------------------------|

D#|-----------------------------------------|-----------------------------------------|
A#|-----------------------------------------|-----------------------------------------|
F#|-----------------------------------------|-----------------------------------------|
C#|-----------------------------------------|-----------------------------------------|
G#|-3----3----3----3----3----3----3----3----|-3----3----3----3----3----3----3----3----|
D#|-1----1----1----1----1----1----1----1----|-1----1----1----1----1----1----1----1----|

D#|-----------------------------|---------|-----------------------------|-------------------------------------|
A#|-----------------------------|---------|-----------------------------|-------------------------------------|
F#|-%---------------------------|---------|-------2-----2----2----7-----|-7-----7----5----5----7----5----7----|
C#|-%---------------------------|---------|-------2-----2----2----7-----|-7-----7----5----5----7----5----7----|
G#|------5------5-----5----5----|-5-------|-0---------------------------|-------------------------------------|
D#|------3------3-----3----3----|-3-------|-----------------------------|-------------------------------------|

D#|-----------------------------|-------------------------------------|-----------------------------|
A#|-----------------------------|-------------------------------------|-----------------------------|
F#|-------2-----2----2----7-----|-7-----7----5----5----7----5----7----|-------2-----2----2----7-----|
C#|-------2-----2----2----7-----|-7-----7----5----5----7----5----7----|-------2-----2----2----7-----|
G#|-0---------------------------|-------------------------------------|-0---------------------------|
D#|-----------------------------|-------------------------------------|-----------------------------|

D#|-------------------------------------|-------3-----3----3----3-----|-2-------------------|
A#|-------------------------------------|-------3-----3----3----3-----|-3-------------------|
F#|-7-----7----5----5----7----5----7----|-------2-----2----2----2-----|-2-------------------|
C#|-7-----7----5----5----7----5----7----|-0---------------------------|---------------------|
G#|-------------------------------------|-----------------------------|--------3------2-----|
D#|-------------------------------------|-----------------------------|---------------------|

D#|-----------------------------|-------------------------------------|-----------------------------|
A#|-----------------------------|-------------------------------------|-----------------------------|
F#|-------2-----2----2----7-----|-7-----7----5----5----7----5----7----|-------2-----2----2----7-----|
C#|-------2-----2----2----7-----|-7-----7----5----5----7----5----7----|-------2-----2----2----7-----|
G#|-0---------------------------|-------------------------------------|-0---------------------------|
D#|-----------------------------|-------------------------------------|-----------------------------|

D#|-------------------------------------|-----------------------------|-------------------------------------|
A#|-------------------------------------|-----------------------------|-------------------------------------|
F#|-7-----7----5----5----7----5----7----|-------2-----2----2----7-----|-7-----7----5----5----7----5----7----|
C#|-7-----7----5----5----7----5----7----|-------2-----2----2----7-----|-7-----7----5----5----7----5----7----|
G#|-------------------------------------|-0---------------------------|-------------------------------------|
D#|-------------------------------------|-----------------------------|-------------------------------------|

D#|-------3-----3----3----3-----|-2-------------------|-----------------------------|
A#|-------3-----3----3----3-----|-3-------------------|-----------------------------|
F#|-------2-----2----2----2-----|-2-------------------|-------2-----2----2----7-----|
C#|-0---------------------------|---------------------|-------2-----2----2----7-----|
G#|-----------------------------|--------3------2-----|-0---------------------------|
D#|-----------------------------|---------------------|-----------------------------|

D#|-------------------------------------|-----------------------------|-------------------------------------|
A#|-------------------------------------|-----------------------------|-------------------------------------|
F#|-7-----7----5----5----7----5----7----|-------2-----2----2----7-----|-7-----7----5----5----7----5----7----|
C#|-7-----7----5----5----7----5----7----|-------2-----2----2----7-----|-7-----7----5----5----7----5----7----|
G#|-------------------------------------|-0---------------------------|-------------------------------------|
D#|-------------------------------------|-----------------------------|-------------------------------------|

D#|-----------------------------|-------------------------------------|-------3-----3----3----3-----|
A#|-----------------------------|-------------------------------------|-------3-----3----3----3-----|
F#|-------2-----2----2----7-----|-7-----7----5----5----7----5----7----|-------2-----2----2----2-----|
C#|-------2-----2----2----7-----|-7-----7----5----5----7----5----7----|-0---------------------------|
G#|-0---------------------------|-------------------------------------|-----------------------------|
D#|-----------------------------|-------------------------------------|-----------------------------|

D#|-2-------------------|-----------------------------|-------------------------------------|
A#|-3-------------------|-----------------------------|-------------------------------------|
F#|-2-------------------|-------2-----2----2----7-----|-7-----7----5----5----7----5----7----|
C#|---------------------|-------2-----2----2----7-----|-7-----7----5----5----7----5----7----|
G#|--------3------2-----|-0---------------------------|-------------------------------------|
D#|---------------------|-----------------------------|-------------------------------------|

D#|-----------------------------|-------------------------------------|-----------------------------|
A#|-----------------------------|-------------------------------------|-----------------------------|
F#|-------2-----2----2----7-----|-7-----7----5----5----7----5----7----|-------2-----2----2----7-----|
C#|-------2-----2----2----7-----|-7-----7----5----5----7----5----7----|-------2-----2----2----7-----|
G#|-0---------------------------|-------------------------------------|-0---------------------------|
D#|-----------------------------|-------------------------------------|-----------------------------|

D#|-------------------------------------|-------3-----3----3----3-----|-2-------------------|
A#|-------------------------------------|-------3-----3----3----3-----|-3-------------------|
F#|-7-----7----5----5----7----5----7----|-------2-----2----2----2-----|-2-------------------|
C#|-7-----7----5----5----7----5----7----|-0---------------------------|---------------------|
G#|-------------------------------------|-----------------------------|--------3------2-----|
D#|-------------------------------------|-----------------------------|---------------------|

D#|-----------------------------------------|-----------------------------------------|
A#|-----------------------------------------|-----------------------------------------|
F#|-----------------------------------------|-----------------------------------------|
C#|-5----5----5----5----5----5----5----5----|-5----5----5----5----5----5----5----5----|
G#|-3----3----3----3----3----3----3----3----|-3----3----3----3----3----3----3----3----|
D#|-----------------------------------------|-----------------------------------------|

D#|-----------------------------------------|-----------------------------------------|
A#|-----------------------------------------|-----------------------------------------|
F#|-----------------------------------------|-----------------------------------------|
C#|-9----9----9----9----9----9----9----9----|-9----9----9----9----9----9----9----9----|
G#|-7----7----7----7----7----7----7----7----|-7----7----7----7----7----7----7----7----|
D#|-----------------------------------------|-----------------------------------------|

D#|-----------------------------------------|-----------------------------------------|
A#|-----------------------------------------|-----------------------------------------|
F#|-----------------------------------------|-----------------------------------------|
C#|-----------------------------------------|-----------------------------------------|
G#|-5----5----5----5----5----5----5----5----|-5----5----5----5----5----5----5----5----|
D#|-3----3----3----3----3----3----3----3----|-3----3----3----3----3----3----3----3----|

D#|-----------------------------------------|---------------------------------|-----------------------------------------|
A#|-----------------------------------------|---------------------------------|-----------------------------------------|
F#|-----------------------------------------|---------------------------------|-----------------------------------------|
C#|-5----5----5----5----5----5----5----5----|-5----5----5----5----------------|-----------------------------------------|
G#|-3----3----3----3----3----3----3----3----|-3----3----3----3----3-----5-----|-7----7----7----7----7----7----7----7----|
D#|-----------------------------------------|---------------------------------|-5----5----5----5----5----5----5----5----|

D#|-----------------------------------------|-----------------------------------------|
A#|-----------------------------------------|-----------------------------------------|
F#|-----------------------------------------|-----------------------------------------|
C#|-----------------------------------------|-7----7----7----7----7----7----7----7----|
G#|-7----7----7----7----7----7----7----7----|-5----5----5----5----5----5----5----5----|
D#|-5----5----5----5----5----5----5----5----|-----------------------------------------|

D#|-----------------------------------------|-----------------------------------------|
A#|-----------------------------------------|-----------------------------------------|
F#|-----------------------------------------|-----------------------------------------|
C#|-7----7----7----7----7----7----7----7----|-----------------------------------------|
G#|-5----5----5----5----5----5----5----5----|-3----3----3----3----3----3----3----3----|
D#|-----------------------------------------|-1----1----1----1----1----1----1----1----|

D#|-----------------------------------------|-----------------------------|---------|
A#|-----------------------------------------|-----------------------------|---------|
F#|-----------------------------------------|-%---------------------------|---------|
C#|-----------------------------------------|-%---------------------------|---------|
G#|-3----3----3----3----3----3----3----3----|------5------5-----5----5----|-5-------|
D#|-1----1----1----1----1----1----1----1----|------3------3-----3----3----|-3-------|

D#|-----------------------------|-----------------------------|-----------------------------|
A#|-----------------------------|-----------------------------|-----------------------------|
F#|-----------------------------|------------5----5-----------|-----------------------------|
C#|------------5----5-----7-----|-----------------------7-----|------------5----5-----7-----|
G#|-0-----0---------------------|-0-----0---------------------|-0-----0---------------------|
D#|-----------------------------|-----------------------------|-----------------------------|

D#|-----------------------------|-----------------------------|-----------------------------|
A#|-----------------------------|-----------------------------|-----------------------------|
F#|------------5----5-----------|-----------------------------|------------5----5-----------|
C#|-----------------------7-----|------------5----5-----7-----|-----------------------7-----|
G#|-0-----0---------------------|-0-----0---------------------|-0-----0---------------------|
D#|-----------------------------|-----------------------------|-----------------------------|

D#|-----------------------------|-----------------------------|---------|---------|
A#|-----------------------------|-----------------------------|---------|---------|
F#|-----------------------------|------------5----5-----------|-%-------|-%-------|
C#|------------5----5-----7-----|-----------------------7-----|-%-------|-%-------|
G#|-0-----0---------------------|-0-----0---------------------|---------|---------|
D#|-----------------------------|-----------------------------|---------|---------|

D#|---------|---------|---------|---------|---------|---------|---------|---------|
A#|---------|---------|---------|---------|---------|---------|---------|---------|
F#|-%-------|-%-------|-%-------|-%-------|-%-------|-%-------|-%-------|-%-------|
C#|-%-------|-%-------|-%-------|-%-------|-%-------|-%-------|-%-------|-%-------|
G#|---------|---------|---------|---------|---------|---------|---------|---------|
D#|---------|---------|---------|---------|---------|---------|---------|---------|

D#|---------|---------|---------|---------|---------|---------|---------|---------|
A#|---------|---------|---------|---------|---------|---------|---------|---------|
F#|-%-------|-%-------|-%-------|-%-------|-%-------|-%-------|-%-------|-%-------|
C#|-%-------|-%-------|-%-------|-%-------|-%-------|-%-------|-%-------|-%-------|
G#|---------|---------|---------|---------|---------|---------|---------|---------|
D#|---------|---------|---------|---------|---------|---------|---------|---------|

D#|---------|---------|---------|---------|---------|---------|---------|---------|
A#|---------|---------|---------|---------|---------|---------|---------|---------|
F#|-%-------|-%-------|-%-------|-%-------|-%-------|-%-------|-%-------|-%-------|
C#|-%-------|-%-------|-%-------|-%-------|-%-------|-%-------|-%-------|-%-------|
G#|---------|---------|---------|---------|---------|---------|---------|---------|
D#|---------|---------|---------|---------|---------|---------|---------|---------|

D#|---------|---------|-----------------------------|-------------------------------------|
A#|---------|---------|-----------------------------|-------------------------------------|
F#|-%-------|-%-------|-------2-----2----2----7-----|-7-----7----5----5----7----5----7----|
C#|-%-------|-%-------|-------2-----2----2----7-----|-7-----7----5----5----7----5----7----|
G#|---------|---------|-0---------------------------|-------------------------------------|
D#|---------|---------|-----------------------------|-------------------------------------|

D#|-----------------------------|-------------------------------------|-----------------------------|
A#|-----------------------------|-------------------------------------|-----------------------------|
F#|-------2-----2----2----7-----|-7-----7----5----5----7----5----7----|-------2-----2----2----7-----|
C#|-------2-----2----2----7-----|-7-----7----5----5----7----5----7----|-------2-----2----2----7-----|
G#|-0---------------------------|-------------------------------------|-0---------------------------|
D#|-----------------------------|-------------------------------------|-----------------------------|

D#|-------------------------------------|-------3-----3----3----3-----|-2-------------------|
A#|-------------------------------------|-------3-----3----3----3-----|-3-------------------|
F#|-7-----7----5----5----7----5----7----|-------2-----2----2----2-----|-2-------------------|
C#|-7-----7----5----5----7----5----7----|-0---------------------------|---------------------|
G#|-------------------------------------|-----------------------------|--------3------2-----|
D#|-------------------------------------|-----------------------------|---------------------|

D#|-----------------------------|-------------------------------------|-----------------------------|
A#|-----------------------------|-------------------------------------|-----------------------------|
F#|-------2-----2----2----7-----|-7-----7----5----5----7----5----7----|-------2-----2----2----7-----|
C#|-------2-----2----2----7-----|-7-----7----5----5----7----5----7----|-------2-----2----2----7-----|
G#|-0---------------------------|-------------------------------------|-0---------------------------|
D#|-----------------------------|-------------------------------------|-----------------------------|

D#|-------------------------------------|-----------------------------|-------------------------------------|
A#|-------------------------------------|-----------------------------|-------------------------------------|
F#|-7-----7----5----5----7----5----7----|-------2-----2----2----7-----|-7-----7----5----5----7----5----7----|
C#|-7-----7----5----5----7----5----7----|-------2-----2----2----7-----|-7-----7----5----5----7----5----7----|
G#|-------------------------------------|-0---------------------------|-------------------------------------|
D#|-------------------------------------|-----------------------------|-------------------------------------|

D#|-------3-----3----3----3-----|-2-------------------|-----------------------------|
A#|-------3-----3----3----3-----|-3-------------------|-----------------------------|
F#|-------2-----2----2----2-----|-2-------------------|-------2-----2----2----7-----|
C#|-0---------------------------|---------------------|-------2-----2----2----7-----|
G#|-----------------------------|--------3------2-----|-0---------------------------|
D#|-----------------------------|---------------------|-----------------------------|

D#|-------------------------------------|-----------------------------|-------------------------------------|
A#|-------------------------------------|-----------------------------|-------------------------------------|
F#|-7-----7----5----5----7----5----7----|-------2-----2----2----7-----|-7-----7----5----5----7----5----7----|
C#|-7-----7----5----5----7----5----7----|-------2-----2----2----7-----|-7-----7----5----5----7----5----7----|
G#|-------------------------------------|-0---------------------------|-------------------------------------|
D#|-------------------------------------|-----------------------------|-------------------------------------|

D#|-----------------------------|-------------------------------------|-------3-----3----3----3-----|
A#|-----------------------------|-------------------------------------|-------3-----3----3----3-----|
F#|-------2-----2----2----7-----|-7-----7----5----5----7----5----7----|-------2-----2----2----2-----|
C#|-------2-----2----2----7-----|-7-----7----5----5----7----5----7----|-0---------------------------|
G#|-0---------------------------|-------------------------------------|-----------------------------|
D#|-----------------------------|-------------------------------------|-----------------------------|

D#|-2-------------------|-----------------------------|-------------------------------------|
A#|-3-------------------|-----------------------------|-------------------------------------|
F#|-2-------------------|-------2-----2----2----7-----|-7-----7----5----5----7----5----7----|
C#|---------------------|-------2-----2----2----7-----|-7-----7----5----5----7----5----7----|
G#|--------3------2-----|-0---------------------------|-------------------------------------|
D#|---------------------|-----------------------------|-------------------------------------|

D#|-----------------------------|-------------------------------------|-----------------------------|
A#|-----------------------------|-------------------------------------|-----------------------------|
F#|-------2-----2----2----7-----|-7-----7----5----5----7----5----7----|-------2-----2----2----7-----|
C#|-------2-----2----2----7-----|-7-----7----5----5----7----5----7----|-------2-----2----2----7-----|
G#|-0---------------------------|-------------------------------------|-0---------------------------|
D#|-----------------------------|-------------------------------------|-----------------------------|

D#|-------------------------------------|-------3-----3----3----3-----|-2-------------------|
A#|-------------------------------------|-------3-----3----3----3-----|-3-------------------|
F#|-7-----7----5----5----7----5----7----|-------2-----2----2----2-----|-2-------------------|
C#|-7-----7----5----5----7----5----7----|-0---------------------------|---------------------|
G#|-------------------------------------|-----------------------------|--------3------2-----|
D#|-------------------------------------|-----------------------------|---------------------|

D#|-----------------------------|-------------------------------------|-----------------------------|
A#|-----------------------------|-------------------------------------|-----------------------------|
F#|-------2-----2----2----7-----|-7-----7----5----5----7----5----7----|-------2-----2----2----7-----|
C#|-------2-----2----2----7-----|-7-----7----5----5----7----5----7----|-------2-----2----2----7-----|
G#|-0---------------------------|-------------------------------------|-0---------------------------|
D#|-----------------------------|-------------------------------------|-----------------------------|

D#|-------------------------------------|-----------------------------|-------------------------------------|
A#|-------------------------------------|-----------------------------|-------------------------------------|
F#|-7-----7----5----5----7----5----7----|-------2-----2----2----7-----|-7-----7----5----5----7----5----7----|
C#|-7-----7----5----5----7----5----7----|-------2-----2----2----7-----|-7-----7----5----5----7----5----7----|
G#|-------------------------------------|-0---------------------------|-------------------------------------|
D#|-------------------------------------|-----------------------------|-------------------------------------|

D#|-------3-----3----3----3-----|-2-------------------|-----------------------------|
A#|-------3-----3----3----3-----|-3-------------------|-----------------------------|
F#|-------2-----2----2----2-----|-2-------------------|-------2-----2----2----7-----|
C#|-0---------------------------|---------------------|-------2-----2----2----7-----|
G#|-----------------------------|--------3------2-----|-0---------------------------|
D#|-----------------------------|---------------------|-----------------------------|

D#|-------------------------------------|-----------------------------|-------------------------------------|
A#|-------------------------------------|-----------------------------|-------------------------------------|
F#|-7-----7----5----5----7----5----7----|-------2-----2----2----7-----|-7-----7----5----5----7----5----7----|
C#|-7-----7----5----5----7----5----7----|-------2-----2----2----7-----|-7-----7----5----5----7----5----7----|
G#|-------------------------------------|-0---------------------------|-------------------------------------|
D#|-------------------------------------|-----------------------------|-------------------------------------|

D#|-----------------------------|-------------------------------------|-------3-----3----3----3-----|
A#|-----------------------------|-------------------------------------|-------3-----3----3----3-----|
F#|-------2-----2----2----7-----|-7-----7----5----5----7----5----7----|-------2-----2----2----2-----|
C#|-------2-----2----2----7-----|-7-----7----5----5----7----5----7----|-0---------------------------|
G#|-0---------------------------|-------------------------------------|-----------------------------|
D#|-----------------------------|-------------------------------------|-----------------------------|

D#|-2-------------------|-----------------------------|-------------------------------------|
A#|-3-------------------|-----------------------------|-------------------------------------|
F#|-2-------------------|-------2-----2----2----7-----|-7-----7----5----5----7----5----7----|
C#|---------------------|-------2-----2----2----7-----|-7-----7----5----5----7----5----7----|
G#|--------3------2-----|-0---------------------------|-------------------------------------|
D#|---------------------|-----------------------------|-------------------------------------|

D#|-----------------------------|-------------------------------------|-----------------------------|
A#|-----------------------------|-------------------------------------|-----------------------------|
F#|-------2-----2----2----7-----|-7-----7----5----5----7----5----7----|-------2-----2----2----7-----|
C#|-------2-----2----2----7-----|-7-----7----5----5----7----5----7----|-------2-----2----2----7-----|
G#|-0---------------------------|-------------------------------------|-0---------------------------|
D#|-----------------------------|-------------------------------------|-----------------------------|

D#|-------------------------------------|-------3-----3----3----3-----|-2-------------------|
A#|-------------------------------------|-------3-----3----3----3-----|-3-------------------|
F#|-7-----7----5----5----7----5----7----|-------2-----2----2----2-----|-2-------------------|
C#|-7-----7----5----5----7----5----7----|-0---------------------------|---------------------|
G#|-------------------------------------|-----------------------------|--------3------2-----|
D#|-------------------------------------|-----------------------------|---------------------|

D#|-----------------------------|-------------------------------------|-----------------------------|
A#|-----------------------------|-------------------------------------|-----------------------------|
F#|-------2-----2----2----7-----|-7-----7----5----5----7----5----7----|-------2-----2----2----7-----|
C#|-------2-----2----2----7-----|-7-----7----5----5----7----5----7----|-------2-----2----2----7-----|
G#|-0---------------------------|-------------------------------------|-0---------------------------|
D#|-----------------------------|-------------------------------------|-----------------------------|

D#|-------------------------------------|-----------------------------|-------------------------------------|
A#|-------------------------------------|-----------------------------|-------------------------------------|
F#|-7-----7----5----5----7----5----7----|-------2-----2----2----7-----|-7-----7----5----5----7----5----7----|
C#|-7-----7----5----5----7----5----7----|-------2-----2----2----7-----|-7-----7----5----5----7----5----7----|
G#|-------------------------------------|-0---------------------------|-------------------------------------|
D#|-------------------------------------|-----------------------------|-------------------------------------|

D#|-------3-----3----3----3-----|-2-------------------|-----------------------------|
A#|-------3-----3----3----3-----|-3-------------------|-----------------------------|
F#|-------2-----2----2----2-----|-2-------------------|-------2-----2----2----7-----|
C#|-0---------------------------|---------------------|-------2-----2----2----7-----|
G#|-----------------------------|--------3------2-----|-0---------------------------|
D#|-----------------------------|---------------------|-----------------------------|

D#|-------------------------------------|-----------------------------|-------------------------------------|
A#|-------------------------------------|-----------------------------|-------------------------------------|
F#|-7-----7----5----5----7----5----7----|-------2-----2----2----7-----|-7-----7----5----5----7----5----7----|
C#|-7-----7----5----5----7----5----7----|-------2-----2----2----7-----|-7-----7----5----5----7----5----7----|
G#|-------------------------------------|-0---------------------------|-------------------------------------|
D#|-------------------------------------|-----------------------------|-------------------------------------|

D#|-----------------------------|-------------------------------------|-------3-----3----3----3-----|
A#|-----------------------------|-------------------------------------|-------3-----3----3----3-----|
F#|-------2-----2----2----7-----|-7-----7----5----5----7----5----7----|-------2-----2----2----2-----|
C#|-------2-----2----2----7-----|-7-----7----5----5----7----5----7----|-0---------------------------|
G#|-0---------------------------|-------------------------------------|-----------------------------|
D#|-----------------------------|-------------------------------------|-----------------------------|

D#|-2-------------------|
A#|-3-------------------|
F#|-2-------------------|
C#|---------------------|
G#|--------3------2-----|
D#|---------------------|
Black Sabbath - Turn To Stone
Black Sabbath - Turn To Stone.gp3