Black Sabbath - War Pigs

Black Sabbath - War Pigs

Black Sabbath



Title: War Pigs
Album: 
Artist: 
Author: Black Sabbath

Track 1: Guitar
E|------------------------|---------|---------|---------|------------------------|----------------------------|
B|-7----9-----------------|---------|---------|---------|-7----9-----------------|--------12---12---11---11---|
G|-7----9----%-----%------|-%-------|-%-------|-%-------|-7----9----%-----%------|-%------12---12---11---11---|
D|-7----9----%-----%------|-%-------|-%-------|-%-------|-7----9----%-----%------|-%------12---12---11---11---|
A|-5----7-----------------|---------|---------|---------|-5----7-----------------|--------10---10---9----9----|
E|------------------------|---------|---------|---------|------------------------|----------------------------|

E|---------|---------------|------------------------|----------------------------|---------|
B|-10------|--------8------|-7----9-----------------|--------12---12---11---11---|-10------|
G|-10------|-9-------------|-7----9----%-----%------|-%------12---12---11---11---|-10------|
D|-10------|-9-------------|-7----9----%-----%------|-%------12---12---11---11---|-10------|
A|-8-------|-7-------------|-5----7-----------------|--------10---10---9----9----|-8-------|
E|---------|---------------|------------------------|----------------------------|---------|

E|------------------------|---------------------12----12--------|----------------------------|
B|--------7----9-----9----|---------------------12----12--------|----------------------------|
G|-9----------------------|---------------------12----12--------|-%---------%----------------|
D|-9----------------------|-------------------------------------|-%---------%----------------|
A|-7----------------------|-------------------------------------|----------------------------|
E|------------------------|-0----0----0----0---------------0----|------0---------0----3------|

E|-----------------------------------------|-----------------------------------------|
B|-----------------------------------------|-----------------------------------------|
G|---------------------2----0----0---------|-%---------%---------2----0---------%----|
D|-----------------------------------------|-%---------%------------------------%----|
A|-----------------------------------------|-----------------------------------------|
E|-0----0----0----0-------------------0----|------0---------0--------------3---------|

E|---------|----------------------------|------------------------|----------------------------|
B|---------|----------------------------|------------------------|----------------------------|
G|---------|-%------%-------------------|-----------%-----%------|-%------%-------------------|
D|-9-------|-%------%----9----9----9----|-9----7----%-----%------|-%------%----7----7----7----|
A|-7-------|-------------7----7----7----|-7----5-----------------|-------------5----5----5----|
E|---------|----------------------------|------------------------|----------------------------|

E|------------------------|----------------------------|------------------------|---------|
B|------------------------|----------------------------|------------------------|---------|
G|-----------%-----%------|-%------%-------------------|-----------%-----%------|-9-------|
D|-7----9----%-----%------|-%------%----9----9----9----|-9----7----%-----%------|---------|
A|-5----7-----------------|-------------7----7----7----|-7----5-----------------|---------|
E|------------------------|----------------------------|------------------------|---------|
Black Sabbath - War Pigs
Black Sabbath - War Pigs.gp3