Black Sabbath - War Pigs (2)

Black Sabbath - War Pigs (2)

Black Sabbath



Title: War Pigs
Album: 
Artist: Black Sabbath
Author: Black Sabbath

Track 1: Guitar
E|----------------------|--------------------------|----------------------|--------------------------|
B|----------------------|--------------------------|----------------------|--------------------------|
G|-7----9-------9-------|-9-------7----9-----9-----|-9----7---------------|--------------------------|
D|-7----9-------9-------|-9-------7----9-----9-----|-9----7---------------|--------------------------|
A|-5----7-------7-------|-7-------5----7-----7-----|-7----5-------5-------|-5-------11----11----12---|
E|----------------------|--------------------------|----------------------|---------0-----0----------|

E|---------|--------------------------|----------------------|--------------------------|
B|---------|--------------------------|----------------------|--------------------------|
G|---------|---------7----9-----9-----|-9----7---------------|--------------------------|
D|---------|---------7----9-----9-----|-9----7---------------|--------------------------|
A|-11------|-11------5----7-----7-----|-7----5-------5-------|-5-------11----11----12---|
E|-0-------|-0------------------------|----------------------|---------0-----0----------|

E|----------------------|--------------------------|----------------------|--------------------------------|
B|----------------------|--------------------------|----------------------|--------------------------------|
G|----------------------|---------7----9-----9-----|-9----7---------------|--------------------------------|
D|----------------------|---------7----9-----9-----|-9----7---------------|---------9----------------------|
A|-12---14------14------|-14------5----7-----7-----|-7----5-------5-------|-5-------7-----11----11----12---|
E|-0--------------------|-0------------------------|----------------------|---------0-----0-----0----------|

E|-------------------------------------|---------------------------|---------------------------|
B|-------------------------------------|---------------------------|---------------------------|
G|--------------------7----9-----9-----|-9----7-------7------7-----|-7----9-------9------9-----|
D|--------------------7----9-----9-----|-9----7-------7------7-----|-7----9-------9------9-----|
A|-12---14----14------5----7-----7-----|-7----5-------5------5-----|-5----7-------7------7-----|
E|-0----------0------------------------|---------------------------|---------------------------|

E|----------------------|------------------------|---------|------------------------|
B|----------------------|------------------------|---------|------------------------|
G|-9----7-------7-------|-----------%-----%------|-%-------|-----------%-----%------|
D|-9----7-------7-------|-12--14----%-----%------|-%-------|-12--14----%-----%------|
A|-7----5-------5-------|-12--14-----------------|---------|-12--14-----------------|
E|----------------------|-10--12-----------------|---------|-10--12-----------------|

E|---------|------------------------|---------|------------------------|---------|------------------------|
B|---------|------------------------|---------|------------------------|---------|------------------------|
G|-%-------|-----------%-----%------|-%-------|-----------%-----%------|-%-------|-----------%-----%------|
D|-%-------|-12--14----%-----%------|-%-------|-12--14----%-----%------|-%-------|-12--14----%-----%------|
A|---------|-12--14-----------------|---------|-12--14-----------------|---------|-12--14-----------------|
E|---------|-10--12-----------------|---------|-10--12-----------------|---------|-10--12-----------------|

E|---------|------------------------|-----------------------------------|------------------------|
B|---------|------------------------|-----------------------------------|------------------------|
G|-%-------|-----------%-----%------|-%------%-----4---2---0--------%---|-----------%-----%------|
D|-%-------|-12--14----%-----%------|-%------%-----------------2----%---|-12--14----%-----%------|
A|---------|-12--14-----------------|-----------------------------------|-12--14-----------------|
E|---------|-10--12-----------------|-----------------------------------|-10--12-----------------|

E|--------------------------------------------------------|------------------------|
B|--------------------------------------------------------|------------------------|
G|-%------------------------------------------------------|-----------%-----%------|
D|-%------2---2---2---2---2---2---2---2---2---2---2---2---|-12--14----%-----%------|
A|--------------------------------------------------------|-12--14-----------------|
E|--------------------------------------------------------|-10--12-----------------|

E|--------------12--------|------------------------|---------|----------------------------------|
B|--------------12--------|------------------------|---------|----------------------------------|
G|-%------%-----12---%----|-----------%-----%------|-%-------|-----------%----------%-------%---|
D|-%------%----------%----|-12--14----%-----%------|-%-------|-12--14----%------17--%---16--%---|
A|------------------------|-12--14-----------------|---------|-12--14-----------17------16------|
E|------------------------|-10--12-----------------|---------|-10--12-----------15------14------|

E|--------------------|----------------------------------|------------------------------------------|
B|--------------------|----------------------------------|------------------------------------------|
G|--------------12----|-----------%----------%-------%---|------------------------------------------|
D|-15-----14----------|-12--14----%------17--%---16--%---|-15-----14--------14--14--14--14--14--14--|
A|-15-----14----------|-12--14-----------17------16------|-15-----14----14--------------------------|
E|-13-----12----------|-10--12-----------15------14------|-13-----12--------------------------------|

E|----------------------------------|--------------12--------|----------------------------------|
B|----------------------------------|--------------12--------|----------------------------------|
G|-----------%----------%-------%---|--------------12---%----|-----------%----------%-------%---|
D|-12--14----%------17--%---16--%---|-15-----14---------%----|-12--14----%------17--%---16--%---|
A|-12--14-----------17------16------|-15-----14--------------|-12--14-----------17------16------|
E|-10--12-----------15------14------|-13-----12--------------|-10--12-----------15------14------|

E|------------------------|-----------------12----0-------------------------|-----------------12----0-------------------------|
B|------------------------|-----------------12----0-------------------------|-----------------12----0-------------------------|
G|-------------------%----|-----------------12----0---%-------%-------------|-----------------12----0---%-------%-------------|
D|-15-----14----14---%----|---------------------------%-------%-------------|---------------------------%-------%-------------|
A|-15-----14----14--------|-------------------------------------------------|-------------------------------------------------|
E|-13-----12----12--------|-0---0---0---0---------0-------0-------0---3-----|-0---0---0---0---------0-------0-------0---3-----|

E|-----------------12----0-------------------------|-----------------12----0-------------------------|
B|-----------------12----0-------------------------|-----------------12----0-------------------------|
G|-----------------12----0---%-------%-------------|-----------------12----0---%-------%-------------|
D|---------------------------%-------%-------------|---------------------------%-------%-------------|
A|-------------------------------------------------|-------------------------------------------------|
E|-0---0---0---0---------0-------0-------0---3-----|-0---0---0---0---------0-------0-------0---3-----|

E|--------------------------------------------------------------|--------------------------------------------------------------|
B|--------------------------------------------------------------|--------------------------------------------------------------|
G|-------------------------%-------%-------%--------------------|-------------------------%-------%-------%--------------------|
D|-----------------2---0---%-------%-------%-------2---0--------|-----------------2---0---%-------%-------%-------2---0--------|
A|--------------------------------------------------------------|--------------------------------------------------------------|
E|-0---0---0---0---------------0-------0-------0-----------3----|-0---0---0---0---------------0-------0-------0-----------3----|

E|--------------------------------------------------------------|--------------------------------------------------------------|
B|--------------------------------------------------------------|--------------------------------------------------------------|
G|-------------------------%-------%-------%--------------------|-------------------------%-------%-------%--------------------|
D|-----------------2---0---%-------%-------%-------2---0--------|-----------------2---0---%-------%-------%-------2---0--------|
A|--------------------------------------------------------------|--------------------------------------------------------------|
E|-0---0---0---0---------------0-------0-------0-----------3----|-0---0---0---0---------------0-------0-------0-----------3----|

E|--------------------------------------------------------------|--------------------------------------------------------------|
B|--------------------------------------------------------------|--------------------------------------------------------------|
G|-------------------------%-------%-------%--------------------|-------------------------%-------%-------%--------------------|
D|-----------------2---0---%-------%-------%-------2---0--------|-----------------2---0---%-------%-------%-------2---0--------|
A|--------------------------------------------------------------|--------------------------------------------------------------|
E|-0---0---0---0---------------0-------0-------0-----------3----|-0---0---0---0---------------0-------0-------0-----------3----|

E|--------------------------------------------------------------|--------------------------------------------------------------|
B|--------------------------------------------------------------|--------------------------------------------------------------|
G|-------------------------%-------%-------%--------------------|-------------------------%-------%-------%--------------------|
D|-----------------2---0---%-------%-------%-------2---0--------|-----------------2---0---%-------%-------%-------2---0--------|
A|--------------------------------------------------------------|--------------------------------------------------------------|
E|-0---0---0---0---------------0-------0-------0-----------3----|-0---0---0---0---------------0-------0-------0-----------3----|

E|-----------------12----0-------------------------|-----------------12----0-------------------------|
B|-----------------12----0-------------------------|-----------------12----0-------------------------|
G|-----------------12----0---%-------%-------------|-----------------12----0---%-------%-------------|
D|---------------------------%-------%-------------|---------------------------%-------%-------------|
A|-------------------------------------------------|-------------------------------------------------|
E|-0---0---0---0---------0-------0-------0---3-----|-0---0---0---0---------0-------0-------0---3-----|

E|-----------------12----0-------------------------|-----------------12----0-------------------------|
B|-----------------12----0-------------------------|-----------------12----0-------------------------|
G|-----------------12----0---%-------%-------------|-----------------12----0---%-------%-------------|
D|---------------------------%-------%-------------|---------------------------%-------%-------------|
A|-------------------------------------------------|-------------------------------------------------|
E|-0---0---0---0---------0-------0-------0---3-----|-0---0---0---0---------0-------0-------0---3-----|

E|--------------------------------------------------------------|--------------------------------------------------------------|
B|--------------------------------------------------------------|--------------------------------------------------------------|
G|-------------------------%-------%-------%--------------------|-------------------------%-------%-------%--------------------|
D|-----------------2---0---%-------%-------%-------2---0--------|-----------------2---0---%-------%-------%-------2---0--------|
A|--------------------------------------------------------------|--------------------------------------------------------------|
E|-0---0---0---0---------------0-------0-------0-----------3----|-0---0---0---0---------------0-------0-------0-----------3----|

E|--------------------------------------------------------------|--------------------------------------------------------------|
B|--------------------------------------------------------------|--------------------------------------------------------------|
G|-------------------------%-------%-------%--------------------|-------------------------%-------%-------%--------------------|
D|-----------------2---0---%-------%-------%-------2---0--------|-----------------2---0---%-------%-------%-------2---0--------|
A|--------------------------------------------------------------|--------------------------------------------------------------|
E|-0---0---0---0---------------0-------0-------0-----------3----|-0---0---0---0---------------0-------0-------0-----------3----|

E|--------------------------------------------------------------|--------------------------------------------------------------|
B|--------------------------------------------------------------|--------------------------------------------------------------|
G|-------------------------%-------%-------%--------------------|-------------------------%-------%-------%--------------------|
D|-----------------2---0---%-------%-------%-------2---0--------|-----------------2---0---%-------%-------%-------2---0--------|
A|--------------------------------------------------------------|--------------------------------------------------------------|
E|-0---0---0---0---------------0-------0-------0-----------3----|-0---0---0---0---------------0-------0-------0-----------3----|

E|--------------------------------------------------------------|--------------------------------------------------------------|
B|--------------------------------------------------------------|--------------------------------------------------------------|
G|-------------------------%-------%-------%--------------------|-------------------------%-------%-------%--------------------|
D|-----------------2---0---%-------%-------%-------2---0--------|-----------------2---0---%-------%-------%-------2---0--------|
A|--------------------------------------------------------------|--------------------------------------------------------------|
E|-0---0---0---0---------------0-------0-------0-----------3----|-0---0---0---0---------------0-------0-------0-----------3----|

E|----------------------------------|--------------------|----------------------------------|
B|----------------------------------|--------------------|----------------------------------|
G|-----------%----------%-------%---|--------------12----|-----------%----------%-------%---|
D|-12--14----%------17--%---16--%---|-15-----14----------|-12--14----%------17--%---16--%---|
A|-12--14-----------17------16------|-15-----14----------|-12--14-----------17------16------|
E|-10--12-----------15------14------|-13-----12----------|-10--12-----------15------14------|

E|------------------------------------------|----------------------------------|--------------12--------|
B|------------------------------------------|----------------------------------|--------------12--------|
G|------------------------------------------|-----------%----------%-------%---|--------------12---%----|
D|-15-----14--------14--14--14--14--14--14--|-12--14----%------17--%---16--%---|-15-----14---------%----|
A|-15-----14----14--------------------------|-12--14-----------17------16------|-15-----14--------------|
E|-13-----12--------------------------------|-10--12-----------15------14------|-13-----12--------------|

E|----------------------------------|------------------------|-----------------------------------------------------------|
B|----------------------------------|------------------------|-----------------------------------------------------------|
G|-----------%----------%-------%---|-------------------%----|-----------------------------------------------------------|
D|-12--14----%------17--%---16--%---|-15-----14----14---%----|-----------------------------------------------------------|
A|-12--14-----------17------16------|-15-----14----14--------|-11--12------12--11------11--7-------7---5-------5---7-----|
E|-10--12-----------15------14------|-13-----12----12--------|---------0-----------0-----------0-----------0-------------|

E|-------------------------------------------------------|-------------------------------------------------------|
B|-------------------------------------------------------|-------------------------------------------------------|
G|-------------------------------------------------------|-------------------------------------------------------|
D|-------------------------------------------------------|-----------------------------------------------12--14--|
A|-7-----7---5-------5---7-------7---11------11--12------|-12--11------11--12------12--14--14----12--14----------|
E|---------------0-----------0-----------0-----------0---|---------0-----------0---------------------------------|

E|--------------------------------------------------------12--|---------12----------12-------------12--------------------------|
B|----------------------------------------------------12------|-----12----------12------15---15--------15--12------12--15--12--|
G|----------------------12-------------------12---14----------|-14----------14---------------------------------14--------------|
D|-14-----------12--14---------------12--14-------------------|----------------------------------------------------------------|
A|------12--14---------------12--14---------------------------|----------------------------------------------------------------|
E|------------------------------------------------------------|----------------------------------------------------------------|

E|-----------------------------------------------------12-------15---|-15---15---15---12------12--12------------------------|
B|-12--15--12----------15--12----------15--12------12------15--------|--------------------15-----------15--15--12------12---|
G|-------------14--14----------14--14----------14--------------------|---------------------------------------------14-------|
D|-------------------------------------------------------------------|------------------------------------------------------|
A|-------------------------------------------------------------------|------------------------------------------------------|
E|-------------------------------------------------------------------|------------------------------------------------------|

E|------------------------------------------|---------|----------------------------------------|
B|-15--12-----------------------------------|---------|-7----7----7----7-----------------------|
G|---------14--14--12------12---------------|---------|-9----9----9----9-----7-------7---9-----|
D|---------------------14-------14---14-----|-14------|--------------------------9-------------|
A|------------------------------------------|-14------|----------------------------------------|
E|------------------------------------------|-12------|----------------------------------------|

E|-----------------------------------------------------|-------------------------------------------------------------------------------------------------|
B|-----------------------------------------------------|-------------------------------------------------------------------------------------------------|
G|-9------------7---9-------------7---9----9---7---9---|-11-9--7--9--7--9--11-9--7--9--7--9--11-9--7--9--7--9--11-9--7--9--7--9--11-9--7--9--7--9--11-9--|
D|------7---9-------------7---9------------------------|-------------------------------------------------------------------------------------------------|
A|-----------------------------------------------------|-------------------------------------------------------------------------------------------------|
E|-----------------------------------------------------|-------------------------------------------------------------------------------------------------|

E|---------------------------------------------------------------------------------------------|
B|---------------------------------------------------------------------------------------------|
G|-7--9--7--9--11-9--7--9--7--9--11-9--7--9--7--9--11-9--7--9--7--9--11-9--7--9--7--9--11--9---|
D|---------------------------------------------------------------------------------------------|
A|---------------------------------------------------------------------------------------------|
E|---------------------------------------------------------------------------------------------|

E|----------------------------------------|---------|-----------------------------------------------------------|
B|-7----7----7----7-----------------------|---------|-----------------------------------------------------------|
G|-9----9----9----9-----9---7---7---9-----|-9-------|-----------------------------------------------------------|
D|----------------------------------------|---------|-----------------------------------------------------------|
A|----------------------------------------|---------|-11--12------12--11------11--7-------7---5-------5---7-----|
E|----------------------------------------|---------|---------0-----------0-----------0-----------0-------------|

E|----------------------------------|----------------------------------|-------------------|
B|----------------------------------|----------------------------------|-------------------|
G|----------------------------------|----------------------------------|-9-------9----9----|
D|----------------------------------|----------------------------------|-9-------9----9----|
A|-7----6-----6-----6-----6---6-----|-6----6-----6-----6-----6---6-----|-7-------7----7----|
E|----------------------------------|----------------------------------|-------------------|

E|------------------------|------------------------|--------------------|------------------------|
B|------------------------|------------------------|--------------------|------------------------|
G|-9----7-------7----7----|-7----9-------9----9----|-9----7-------7-----|-----------%-----%------|
D|-9----7-------7----7----|-7----9-------9----9----|-9----7-------7-----|-12--14----%-----%------|
A|-7----5-------5----5----|-5----7-------7----7----|-7----5-------5-----|-12--14-----------------|
E|------------------------|------------------------|--------------------|-10--12-----------------|

E|---------|------------------------|---------|------------------------|---------|------------------------|
B|---------|------------------------|---------|------------------------|---------|------------------------|
G|-%-------|-----------%-----%------|-%-------|-----------%-----%------|-%-------|-----------%-----%------|
D|-%-------|-12--14----%-----%------|-%-------|-12--14----%-----%------|-%-------|-12--14----%-----%------|
A|---------|-12--14-----------------|---------|-12--14-----------------|---------|-12--14-----------------|
E|---------|-10--12-----------------|---------|-10--12-----------------|---------|-10--12-----------------|

E|---------|------------------------|---------|------------------------|-----------------------------------|
B|---------|------------------------|---------|------------------------|-----------------------------------|
G|-%-------|-----------%-----%------|-%-------|-----------%-----%------|-%------%-----4---2---0--------%---|
D|-%-------|-12--14----%-----%------|-%-------|-12--14----%-----%------|-%------%-----------------2----%---|
A|---------|-12--14-----------------|---------|-12--14-----------------|-----------------------------------|
E|---------|-10--12-----------------|---------|-10--12-----------------|-----------------------------------|

E|------------------------|--------------------------------------------------------|
B|------------------------|--------------------------------------------------------|
G|-----------%-----%------|-%------------------------------------------------------|
D|-12--14----%-----%------|-%------2---2---2---2---2---2---2---2---2---2---2---2---|
A|-12--14-----------------|--------------------------------------------------------|
E|-10--12-----------------|--------------------------------------------------------|

E|------------------------|--------------12--------|------------------------|---------|
B|------------------------|--------------12--------|------------------------|---------|
G|-----------%-----%------|-%------%-----12---%----|-----------%-----%------|-%-------|
D|-12--14----%-----%------|-%------%----------%----|-12--14----%-----%------|-%-------|
A|-12--14-----------------|------------------------|-12--14-----------------|---------|
E|-10--12-----------------|------------------------|-10--12-----------------|---------|

E|----------------------------------|--------------------|----------------------------------|
B|----------------------------------|--------------------|----------------------------------|
G|-----------%----------%-------%---|--------------12----|-----------%----------%-------%---|
D|-12--14----%------17--%---16--%---|-15-----14----------|-12--14----%------17--%---16--%---|
A|-12--14-----------17------16------|-15-----14----------|-12--14-----------17------16------|
E|-10--12-----------15------14------|-13-----12----------|-10--12-----------15------14------|

E|------------------------------------------|----------------------------------|--------------12--------|
B|------------------------------------------|----------------------------------|--------------12--------|
G|------------------------------------------|-----------%----------%-------%---|--------------12---%----|
D|-15-----14--------14--14--14--14--14--14--|-12--14----%------17--%---16--%---|-15-----14---------%----|
A|-15-----14----14--------------------------|-12--14-----------17------16------|-15-----14--------------|
E|-13-----12--------------------------------|-10--12-----------15------14------|-13-----12--------------|

E|----------------------------------|------------------------|-----------------------------------------------|
B|----------------------------------|------------------------|-----------------------------------------------|
G|-----------%----------%-------%---|-------------------%----|--------------7-----------------7---------7----|
D|-12--14----%------17--%---16--%---|-15-----14----14---%----|-----9-----------------9-------------9---------|
A|-12--14-----------17------16------|-15-----14----14--------|-7--------7--------7--------7------------------|
E|-10--12-----------15------14------|-13-----12----12--------|-----------------------------------------------|

E|--------------------------------------------------|-------------------------------------------|
B|--------------------------------------------------|-------------------------------------------|
G|--------------7-----------------7---------7---%---|-9---%--------%----7-----7----7----7-------|
D|-----9-----------------9-------------9--------%---|-9---%----9---%----7-----7----7----7-------|
A|-7--------7--------7--------7---------------------|-7--------9--------5-----5----5----5---5---|
E|--------------------------------------------------|----------7--------------------------------|

E|--------------------------------------------------|-------------------------------------------|
B|--------------------------------------------------|-------------------------------------------|
G|--------------7-----------------7---------7---%---|-9---%----12--%----9-----9----9----9-------|
D|-----9-----------------9-------------9--------%---|-9---%----12--%----9-----9----9----9-------|
A|-7--------7--------7--------7---------------------|-7--------10-------7-----7----7----7---7---|
E|--------------------------------------------------|-------------------------------------------|

E|--------------------------------------------------|-------------------------------------------|
B|--------------------------------------------------|-------------------------------------------|
G|--------------7-----------------7---------7---%---|-9---%--------%----7-----7----7----7-------|
D|-----9-----------------9-------------9--------%---|-9---%----9---%----7-----7----7----7-------|
A|-7--------7--------7--------7---------------------|-7--------9--------5-----5----5----5---5---|
E|--------------------------------------------------|----------7--------------------------------|

E|--------------------------------------------------|-------------------------------------------|
B|--------------------------------------------------|-------------------------------------------|
G|--------------7-----------------7---------7---%---|-9---%----12--%----9-----9----9----9-------|
D|-----9-----------------9-------------9--------%---|-9---%----12--%----9-----9----9----9-------|
A|-7--------7--------7--------7---------------------|-7--------10-------7-----7----7----7---7---|
E|--------------------------------------------------|-------------------------------------------|

E|-----------------------------------------------|-----------------------------------------------|
B|-----------------------------------------------|-----------------------------------------------|
G|--------------7-----------------7---------7----|--------------7-----------------7---------7----|
D|-----9-----------------9-------------9---------|-----9-----------------9-------------9---------|
A|-7--------7--------7--------7------------------|-7--------7--------7--------7------------------|
E|-----------------------------------------------|-----------------------------------------------|

E|-----------------------------------------------|-----------------------------------------------|
B|-----------------------------------------------|-----------------------------------------------|
G|--------------7-----------------7---------7----|--------------7-----------------7---------7----|
D|-----9-----------------9-------------9---------|-----9-----------------9-------------9---------|
A|-7--------7--------7--------7------------------|-7--------7--------7--------7------------------|
E|-----------------------------------------------|-----------------------------------------------|

E|-----------------------------------------------|-----------------------------------------------|
B|-----------------------------------------------|-----------------------------------------------|
G|--------------5-----------------5---------5----|--------------5-----------------5---------5----|
D|-----7-----------------7-------------7---------|-----7-----------------7-------------7---------|
A|-5--------5--------5--------5------------------|-5--------5--------5--------5------------------|
E|-----------------------------------------------|-----------------------------------------------|

E|-----------------------------------------------|-----------------------------------------------|
B|-----------------------------------------------|-----------------------------------------------|
G|--------------3-----------------3---------3----|--------------3-----------------3---------3----|
D|-----5-----------------5-------------5---------|-----5-----------------5-------------5---------|
A|-3--------3--------3--------3------------------|-3--------3--------3--------3------------------|
E|-----------------------------------------------|-----------------------------------------------|

E|----------------------------|---------|------------------------------------|---------------------------------|
B|----------------------------|---------|------------------------------------|---------------------------------|
G|-4------%----5----%----5----|-4-------|------------------------------------|---------------------------------|
D|-4------%----5----%----5----|-4-------|-----------------4-----5----4---5---|-4-----4-----4-------------------|
A|-2-----------3---------3----|-2-------|-5---7-----7------------------------|-----------------5----------5----|
E|----------------------------|---------|-0----------------------------------|-----------------------7---------|

E|---------------------------------|---------------------------------|------------------------------------|
B|---------------------------------|---------------------------------|------------------------------------|
G|---------------------------------|---------------------------------|------------------------------------|
D|-----------------4-----5-----7---|-7-----7-----7---4---------------|-----------------4-----5----4---5---|
A|-5---7-----7---------------------|-----------------------5---------|-5---7-----7------------------------|
E|-0-------------------------------|----------------------------7----|-0----------------------------------|

E|---------------------------------|---------------------------------|-------------------------------|
B|---------------------------------|---------------------------------|-------------------------------|
G|---------------------------------|---------------------------------|-----------------------4---7---|
D|-4-----4-----4-------------------|-----------------4-----5-----7---|-7------7---9---9--------------|
A|-----------------5----------5----|-5---7-----7---------------------|-------------------------------|
E|-----------------------7---------|-0-------------------------------|-------------------------------|

E|-----------------------------------------------|-----------------------------------------------------------------------|
B|-----------------------------------------------|-----------------------------------------------------------------------|
G|-7----9----9----7---9---9----9----9----7---9---|-9-----7-------7---9---11-9--7--9--7--9--11-9--7--9--7--9--11-9--7--9--|
D|-----------------------------------------------|-----------9-----------------------------------------------------------|
A|-----------------------------------------------|-----------------------------------------------------------------------|
E|-----------------------------------------------|-----------------------------------------------------------------------|

E|-------------------------------------------------------------------------------------------------|
B|-------------------------------------------------------------------------------------------------|
G|-7--9--11-9--7--9--7--9--11-9--7--9--7--9--11-9--7--9--7--9--11-9--7--9--7--9--11-9--7--9--7--9--|
D|-------------------------------------------------------------------------------------------------|
A|-------------------------------------------------------------------------------------------------|
E|-------------------------------------------------------------------------------------------------|

E|----------------------------------------|-------------------------------------------------|
B|-7----7----7----7-----------------------|-------------------------------------------------|
G|-9----9----9----9-----7-------7---9-----|-7---9---9-------------7---9-------------7---9---|
D|--------------------------9-------------|---------------7---9-------------7---9-----------|
A|----------------------------------------|-------------------------------------------------|
E|----------------------------------------|-------------------------------------------------|

E|--------------------------------------------------|----------------------------------------------------------------|
B|--------------------------------------------------|----------------------------------------------------------------|
G|-9------------7---9-------------7---9-----7---9---|-9----7---9---7-------------------------------------------------|
D|------7---9-------------7---9---------------------|------------------9---7---7-------------------------------------|
A|--------------------------------------------------|------------------------------10--10--9---7---9---10-9--7---9---|
E|--------------------------------------------------|----------------------------------------------------------------|

E|----------------------------------------------------------------------|------------------------------------|
B|----------------------------------------------------------------------|------------------------------------|
G|----------------------------------------------------------------------|------------------------------------|
D|-----------------------------------------------7----------------------|-----------------4-----5----4---5---|
A|-10-9--7---9---10-9--7---9---10-9--7---9---10------9---10-9--7---7----|-5---7-----7------------------------|
E|----------------------------------------------------------------------|-0----------------------------------|

E|---------------------------------|---------------------------------|---------------------------------|
B|---------------------------------|---------------------------------|---------------------------------|
G|---------------------------------|---------------------------------|---------------------------------|
D|-4-----4-----4-------------------|-----------------4-----5-----7---|-7-----7-----7---4---------------|
A|-----------------5----------5----|-5---7-----7---------------------|-----------------------5---------|
E|-----------------------7---------|-0-------------------------------|----------------------------7----|

E|------------------------------------|---------------------------------|---------------------------------|
B|------------------------------------|---------------------------------|---------------------------------|
G|------------------------------------|---------------------------------|---------------------------------|
D|-----------------4-----5----4---5---|-4-----4-----4-------------------|-----------------4-----5-----7---|
A|-5---7-----7------------------------|-----------------5----------5----|-5---7-----7---------------------|
E|-0----------------------------------|-----------------------7---------|-0-------------------------------|

E|---------------------------------|-----------------------------------------------|
B|---------------------------------|-----------------------------------------------|
G|---------------------------------|--------------7-----------------7---------7----|
D|-7-----7-----7---4---------------|-----9-----------------9-------------9---------|
A|-----------------------5---------|-7--------7--------7--------7------------------|
E|----------------------------7----|-----------------------------------------------|

E|-----------------------------------------------|-----------------------------------------------|
B|-----------------------------------------------|-----------------------------------------------|
G|--------------7-----------------7---------7----|--------------7-----------------7---------7----|
D|-----9-----------------9-------------9---------|-----9-----------------9-------------9---------|
A|-7--------7--------7--------7------------------|-7--------7--------7--------7------------------|
E|-----------------------------------------------|-----------------------------------------------|

E|-----------------------------------------------|--------------------------------------------------|
B|-----------------------------------------------|--------------------------------------------------|
G|--------------7-----------------7---------7----|--------------7-----------------7---------7---%---|
D|-----9-----------------9-------------9---------|-----9-----------------9-------------9----7---%---|
A|-7--------7--------7--------7------------------|-7--------7--------7--------7-------------5-------|
E|-----------------------------------------------|--------------------------------------------------|

E|--------------------|
B|--------------------|
G|-9-----0-----%------|
D|-9-----0-----%------|
A|-7-----0------------|
E|--------------------|
Black Sabbath - War Pigs (2)
Black Sabbath - War Pigs (2).gp3