Black Sabbath - Wicked World

Black Sabbath - Wicked World

Black Sabbath



Title: 
Album: 
Artist: Andrew Walshver
Author: Andrew Walshver

Track 1: Rhythm Guitar - Iommi
E|-----------------------------------------------|--------------------------------|
B|-12---------------------12---------------------|--------------------------------|
G|-----14--%---12-------------14--%---12---------|------%--------%---------%------|
D|---------%---------14-----------%---------14---|------%--------%---------%------|
A|-----------------------------------------------|-14-------12-------14-----------|
E|-----------------------------------------------|-12-------10-------12-----------|

E|-----------------------------------------------|--------------------------------|
B|-12---------------------12---------------------|--------------------------------|
G|-----14--%---12-------------14--%---12---------|------%--------%----------------|
D|---------%---------14-----------%---------14---|------%--------%----------------|
A|-----------------------------------------------|-14-------12-------14-----14----|
E|-----------------------------------------------|-12-------10-------12-----12----|

E|--------------------------------------------------|-----------------------------------------------|
B|--------------------------------------------------|-----------------------------------------------|
G|------%------------5---7-----7---5---7---5--------|------%----------------------------------------|
D|------%----5---7-----------------------------7----|------%------------5---7----5--------5---7-----|
A|-7------------------------------------------------|-7---------5---7-----------------5-------------|
E|-5------------------------------------------------|-5---------------------------------------------|

E|--------------------------------------------------|-----------------------------------------------|
B|--------------------------------------------------|-----------------------------------------------|
G|------%------------5---7-----7---5---7---5--------|------%----------------------------------------|
D|------%----5---7-----------------------------7----|------%------------5---7----5--------5---7-----|
A|-7------------------------------------------------|-7---------5---7-----------------5-------------|
E|-5------------------------------------------------|-5---------------------------------------------|

E|--------------------------------|--------------------------------|--------------------------------|
B|--------------------------------|--------------------------------|--------------------------------|
G|------%--------%----------------|------%--------%----------------|------%--------%----------------|
D|------%--------%----------------|------%--------%----------------|------%--------%----------------|
A|-7--------10-------12----12-----|-7--------10-------12----12-----|-7--------10-------12----12-----|
E|-5--------8--------10----10-----|-5--------8--------10----10-----|-5--------8--------10----10-----|

E|---------------|---------|--------------------------------------|--------------------------------------|
B|---------------|---------|--------------------------------------|--------------------------------------|
G|-------%-------|-%-------|--------------------------------------|--------------------------------------|
D|-------%-------|-%-------|--------------------------------------|--------------------------------------|
A|-14------------|---------|-5---7----5---------------------------|-7---9----7---------------------------|
E|-12------------|---------|----------------7-----6-----5----3----|----------------9-----8-----7----5----|

E|--------------------------------------|---------|---------|--------------------------------------------------------|
B|--------------------------------------|---------|---------|--------------------------------------------------------|
G|--------------------------------------|---------|---------|--------------------------------------------------------|
D|--------------------------------------|---------|---------|------------------5-------------------------------------|
A|-9---11---9---------------------------|---------|---------|-5----7-----7------------7----7----7----7----5----5-----|
E|----------------11----10----9----7----|-0-------|-0-------|--------------------------------------------------------|

E|--------------------------------------------------------|--------------------------------------------------------|
B|--------------------------------------------------------|--------------------------------------------------------|
G|--------------------------------------------------------|--------------------------------------------------------|
D|------------------5-------------------------------------|------------------17------------------------------------|
A|-5----7-----7------------7----7----7----7----5----5-----|-17---19----19-----------19---19---19---19---17---17----|
E|--------------------------------------------------------|--------------------------------------------------------|

E|--------------------------------------------------------|
B|--------------------------------------------------------|
G|--------------------------------------------------------|
D|------------------17------------------------------------|
A|-17---19----19-----------19---19---19---19---17---17----|
E|--------------------------------------------------------|
Black Sabbath - Wicked World
Black Sabbath - Wicked World.gp3