Black Sabbath - Zero The Hero

Black Sabbath - Zero The Hero

Black Sabbath



Title: Dirty Women
Album: 
Artist: Black Sabbath
Author: Black Sabbath

Track 1: Guitar III (Overlay)
 B|---------|---------|---------|---------|---------|---------|---------|---------|
F#|---------|---------|---------|---------|---------|---------|---------|---------|
 D|-%-------|-%-------|-%-------|-%-------|-%-------|-%-------|-%-------|-%-------|
 A|-%-------|-%-------|-%-------|-%-------|-%-------|-%-------|-%-------|-%-------|
 D|---------|---------|---------|---------|---------|---------|---------|---------|
 B|---------|---------|---------|---------|---------|---------|---------|---------|

 B|--------------------|--------------------|--------------------|--------------------|
F#|--------------------|--------------------|--------------------|--------------------|
 D|-%------------------|-------%------------|-------%------------|--------------------|
 A|-%-----8------8-----|-10----%------10----|-11----%------11----|-2-----2------------|
 D|--------------------|--------------------|--------------------|--------------0-----|
 B|-------6------6-----|-8------------8-----|-9------------9-----|-0------------0-----|

 B|--------------------|--------------------|--------------------|--------------------|
F#|--------------------|--------------------|--------------------|--------------------|
 D|-------%------------|-------%------------|-------%------------|-------%------------|
 A|-8-----%------8-----|-10----%------10----|-11----%------11----|-2-----%------2-----|
 D|--------------------|--------------------|--------------------|--------------------|
 B|-6------------6-----|-8------------8-----|-9------------9-----|-0------------0-----|

 B|---------|---------|---------|---------|---------|--------------------|--------------------|
F#|---------|---------|---------|---------|---------|--------------------|--------------------|
 D|-%-------|-%-------|-%-------|-%-------|-%-------|-%------------------|-------%------------|
 A|-%-------|-%-------|-%-------|-%-------|-%-------|-%-----8------8-----|-10----%------10----|
 D|---------|---------|---------|---------|---------|--------------------|--------------------|
 B|---------|---------|---------|---------|---------|-------6------6-----|-8------------8-----|

 B|--------------------|--------------------|--------------------|--------------------|
F#|--------------------|--------------------|--------------------|--------------------|
 D|-------%------------|--------------------|-------%------------|-------%------------|
 A|-11----%------11----|-2-----2------------|-8-----%------8-----|-10----%------10----|
 D|--------------------|--------------0-----|--------------------|--------------------|
 B|-9------------9-----|-0------------0-----|-6------------6-----|-8------------8-----|

 B|--------------------|--------------------|---------|---------|---------|---------|
F#|--------------------|--------------------|---------|---------|---------|---------|
 D|-------%------------|-------%------------|-%-------|-%-------|-%-------|-%-------|
 A|-11----%------11----|-2-----%------2-----|-%-------|-%-------|-%-------|-%-------|
 D|--------------------|--------------------|---------|---------|---------|---------|
 B|-9------------9-----|-0------------0-----|---------|---------|---------|---------|

 B|---------|---------|---------|---------|---------|---------|---------|---------|
F#|---------|---------|---------|---------|---------|---------|---------|---------|
 D|-%-------|-%-------|-%-------|-%-------|-%-------|-%-------|-%-------|-%-------|
 A|-%-------|-%-------|-%-------|-%-------|-%-------|-%-------|-%-------|-%-------|
 D|---------|---------|---------|---------|---------|---------|---------|---------|
 B|---------|---------|---------|---------|---------|---------|---------|---------|

 B|---------|---------|---------|---------|---------|---------|---------|---------|
F#|---------|---------|---------|---------|---------|---------|---------|---------|
 D|-%-------|-%-------|-%-------|-%-------|-%-------|-%-------|-%-------|-%-------|
 A|-%-------|-%-------|-%-------|-%-------|-%-------|-%-------|-%-------|-%-------|
 D|---------|---------|---------|---------|---------|---------|---------|---------|
 B|---------|---------|---------|---------|---------|---------|---------|---------|

 B|---------|---------|---------|---------|---------|---------|---------|---------|
F#|---------|---------|---------|---------|---------|---------|---------|---------|
 D|-%-------|-%-------|-%-------|-%-------|-%-------|-%-------|-%-------|-%-------|
 A|-%-------|-%-------|-%-------|-%-------|-%-------|-%-------|-%-------|-%-------|
 D|---------|---------|---------|---------|---------|---------|---------|---------|
 B|---------|---------|---------|---------|---------|---------|---------|---------|

 B|---------|---------|---------|---------|---------|---------|---------|---------|
F#|---------|---------|---------|---------|---------|---------|---------|---------|
 D|-%-------|-%-------|-%-------|-%-------|-%-------|-%-------|-%-------|-%-------|
 A|-%-------|-%-------|-%-------|-%-------|-%-------|-%-------|-%-------|-%-------|
 D|---------|---------|---------|---------|---------|---------|---------|---------|
 B|---------|---------|---------|---------|---------|---------|---------|---------|

 B|---------|---------|---------|---------|---------|---------|---------|---------|
F#|---------|---------|---------|---------|---------|---------|---------|---------|
 D|-%-------|-%-------|-%-------|-%-------|-%-------|-%-------|-%-------|-%-------|
 A|-%-------|-%-------|-%-------|-%-------|-%-------|-%-------|-%-------|-%-------|
 D|---------|---------|---------|---------|---------|---------|---------|---------|
 B|---------|---------|---------|---------|---------|---------|---------|---------|

 B|---------|---------|---------|---------|---------|---------|---------|---------|
F#|---------|---------|---------|---------|---------|---------|---------|---------|
 D|-%-------|-%-------|-%-------|-%-------|-%-------|-%-------|-%-------|-%-------|
 A|-%-------|-%-------|-%-------|-%-------|-%-------|-%-------|-%-------|-%-------|
 D|---------|---------|---------|---------|---------|---------|---------|---------|
 B|---------|---------|---------|---------|---------|---------|---------|---------|

 B|---------|---------|---------|---------|---------|---------|---------|---------|
F#|---------|---------|---------|---------|---------|---------|---------|---------|
 D|-%-------|-%-------|-%-------|-%-------|-%-------|-%-------|-%-------|-%-------|
 A|-%-------|-%-------|-%-------|-%-------|-%-------|-%-------|-%-------|-%-------|
 D|---------|---------|---------|---------|---------|---------|---------|---------|
 B|---------|---------|---------|---------|---------|---------|---------|---------|

 B|---------|---------|---------|---------|---------|---------|---------|---------|
F#|---------|---------|---------|---------|---------|---------|---------|---------|
 D|-%-------|-%-------|-%-------|-%-------|-%-------|-%-------|-%-------|-%-------|
 A|-%-------|-%-------|-%-------|-%-------|-%-------|-%-------|-%-------|-%-------|
 D|---------|---------|---------|---------|---------|---------|---------|---------|
 B|---------|---------|---------|---------|---------|---------|---------|---------|

 B|---------|---------|---------|---------|---------|---------|---------|---------|
F#|---------|---------|---------|---------|---------|---------|---------|---------|
 D|-%-------|-%-------|-%-------|-%-------|-%-------|-%-------|-%-------|-%-------|
 A|-%-------|-%-------|-%-------|-%-------|-%-------|-%-------|-%-------|-%-------|
 D|---------|---------|---------|---------|---------|---------|---------|---------|
 B|---------|---------|---------|---------|---------|---------|---------|---------|

 B|---------|---------|---------|---------|---------|---------|---------|---------|
F#|---------|---------|---------|---------|---------|---------|---------|---------|
 D|-%-------|-%-------|-%-------|-%-------|-%-------|-%-------|-%-------|-%-------|
 A|-%-------|-%-------|-%-------|-%-------|-%-------|-%-------|-%-------|-%-------|
 D|---------|---------|---------|---------|---------|---------|---------|---------|
 B|---------|---------|---------|---------|---------|---------|---------|---------|

 B|---------|---------|---------|---------|---------|---------|---------|---------|
F#|---------|---------|---------|---------|---------|---------|---------|---------|
 D|-%-------|-%-------|-%-------|-%-------|-%-------|-%-------|-%-------|-%-------|
 A|-%-------|-%-------|-%-------|-%-------|-%-------|-%-------|-%-------|-%-------|
 D|---------|---------|---------|---------|---------|---------|---------|---------|
 B|---------|---------|---------|---------|---------|---------|---------|---------|

 B|---------|---------|---------|---------|---------|---------|
F#|---------|---------|---------|---------|---------|---------|
 D|-%-------|-%-------|-%-------|-%-------|-%-------|-%-------|
 A|-%-------|-%-------|-%-------|-%-------|-%-------|-%-------|
 D|---------|---------|---------|---------|---------|---------|
 B|---------|---------|---------|---------|---------|---------|
Black Sabbath - Zero The Hero
Black Sabbath - Zero The Hero.gp4