c scales

c scales

Lessons



Title: C Scales
Album: 
Artist: Nightfiend_1
Author: Nightfiend_1

Track 1: Guitar
E|-----------------------------------------------------------------|---------------------------------0---1---2---3---4-----|
B|-----------------------------------------------------------------|-------------0---1---2---3---4-------------------------|
G|-------------------------------------------------------------0---|-1---2---3---------------------------------------------|
D|-----------------------------------------0---1---2---3---4-------|-------------------------------------------------------|
A|---------------------0---1---2---3---4---------------------------|-------------------------------------------------------|
E|-0---1---2---3---4-----------------------------------------------|-------------------------------------------------------|

E|-4---3---2---1---0-----------------------------------------------|-------------------------------------------------------|
B|---------------------4---3---2---1---0---------------------------|-------------------------------------------------------|
G|-----------------------------------------3---2---1---0-----------|-------------------------------------------------------|
D|---------------------------------------------------------4---3---|-2---1---0---------------------------------------------|
A|-----------------------------------------------------------------|-------------4---3---2---1---0-------------------------|
E|-----------------------------------------------------------------|---------------------------------4---3---2---1---0-----|

E|---------|---------------------------------------------------------0---1---|-3---5---7---8---10--12--13--15--17--19--20--22--24----|
B|---------|---------------------------------------------0---1---3-----------|-------------------------------------------------------|
G|-%-------|-------------------------------------0---2-----------------------|-------------------------------------------------------|
D|-%-------|-------------------------0---2---3-------------------------------|-------------------------------------------------------|
A|---------|-------------0---2---3-------------------------------------------|-------------------------------------------------------|
E|---------|-0---1---3-------------------------------------------------------|-------------------------------------------------------|

E|-24--22--20--19--17--15--13--12--10--8---7---5---3---1---0-------|-------------------------------------------------------|
B|-------------------------------------------------------------3---|-1---0-------------------------------------------------|
G|-----------------------------------------------------------------|---------2---0-----------------------------------------|
D|-----------------------------------------------------------------|-----------------3---2---0-----------------------------|
A|-----------------------------------------------------------------|-----------------------------3---2---0-----------------|
E|-----------------------------------------------------------------|-----------------------------------------3---1---0-----|

E|---------|---------------------------------------------------------1---3---|-4---6---8---10--11--13--15--16--18--20--22--23--22--20--18--16--|
B|---------|---------------------------------------------1---3---4-----------|-----------------------------------------------------------------|
G|-%-------|---------------------------------0---1---3-----------------------|-----------------------------------------------------------------|
D|-%-------|---------------------0---1---3-----------------------------------|-----------------------------------------------------------------|
A|---------|-------------1---3-----------------------------------------------|-----------------------------------------------------------------|
E|---------|-1---3---4-------------------------------------------------------|-----------------------------------------------------------------|

E|-15--13--11--10--8---6---4---3---1-------------------------------|--------------------------------------|
B|-------------------------------------4---3---1-------------------|--------------------------------------|
G|-------------------------------------------------3---1---0-------|--------------------------------%-----|
D|-------------------------------------------------------------3---|-1---0--------------------------%-----|
A|-----------------------------------------------------------------|---------3---1------------------------|
E|-----------------------------------------------------------------|-----------------4---3---1------------|

E|---------|-----------------------------------------------------0---3---5---|-7---8---10--11--13--15--17--19--20--22--23--22--20--19--17--15--|
B|---------|-----------------------------------------0---1---3---------------|-----------------------------------------------------------------|
G|-%-------|---------------------------------0---2---------------------------|-----------------------------------------------------------------|
D|-%-------|---------------------0---1---3-----------------------------------|-----------------------------------------------------------------|
A|---------|---------0---2---3-----------------------------------------------|-----------------------------------------------------------------|
E|---------|-1---3-----------------------------------------------------------|-----------------------------------------------------------------|

E|-13--11--10--8---7---5---3---1-----------------------------------|---------------------------------------|
B|---------------------------------4---3---1---0-------------------|---------------------------------------|
G|-------------------------------------------------2---0-----------|---------------------------%-----%-----|
D|---------------------------------------------------------3---1---|-0-------------------------%-----%-----|
A|-----------------------------------------------------------------|-----3---2---0-------------------------|
E|-----------------------------------------------------------------|-----------------3---1-----------------|

E|---------|---------------------------------------------------------1---3---|-4---7---8---10--11--13--15--16--19--20--22--23--22--20--19------|
B|---------|-----------------------------------------0---1---3---4-----------|-------------------------------------------------------------21--|
G|-%-------|---------------------------------0---1---------------------------|-----------------------------------------------------------------|
D|-%-------|---------------------0---1---3-----------------------------------|-----------------------------------------------------------------|
A|---------|-------------2---3-----------------------------------------------|-----------------------------------------------------------------|
E|---------|-1---3---4-------------------------------------------------------|-----------------------------------------------------------------|

E|-----------------------------------------------------------------|-------------------------------------|
B|-20--18----------------------------------------------------------|-------------------------------------|
G|---------20--19--17--16------------------------------------------|--------------------------------%----|
D|-------------------------18--17--15--13--12--10--9---------------|--------------------------------%----|
A|-----------------------------------------------------11--10--8---|-6---5---3---2-----------------------|
E|-----------------------------------------------------------------|-----------------4---3---1-----------|

E|---------|-------------------------------------------------1---2---3---5---|-8---11--13--14--15--17--20--23--20------------------------------|
B|---------|-----------------------------------------1---4-------------------|-------------------------------------22--20--19--18--16----------|
G|-%-------|---------------------------------0---2---------------------------|---------------------------------------------------------17--14--|
D|-%-------|---------------------1---3---4-----------------------------------|-----------------------------------------------------------------|
A|---------|-------------0---3-----------------------------------------------|-----------------------------------------------------------------|
E|---------|-1---2---3-------------------------------------------------------|-----------------------------------------------------------------|

E|--------------------------------------------------------------|---------|-----------------------------------------0---3---5---8---10--12--|
B|--------------------------------------------------------------|---------|---------------------------------1---3---------------------------|
G|-12--11--10--8---5---2---0------------------------------------|-%-------|-------------------------0---2-----------------------------------|
D|-----------------------------4---3---1------------------------|-%-------|-----------------0---2-------------------------------------------|
A|-----------------------------------------3---0----------------|---------|---------0---3---------------------------------------------------|
E|-------------------------------------------------3---2---1----|---------|-0---3-----------------------------------------------------------|

E|-15--17--20--22--24--22--20--------------------------------------|----------------------------------------|
B|-----------------------------22--20------------------------------|----------------------------------------|
G|-------------------------------------21--19--17------------------|----------------------------------------|
D|-------------------------------------------------19--17----------|----------------------------------------|
A|---------------------------------------------------------19--17--|-15----------------------0--------------|
E|-----------------------------------------------------------------|-----17--15--12--10--8-------3---0------|

E|---------|---------------------------------------------------------0---1---|-3---5---7---8---10--12--13--15--17--19--20--22--24--22--20--19--|
B|---------|---------------------------------------------0---1---3-----------|-----------------------------------------------------------------|
G|-%-------|-------------------------------------0---2-----------------------|-----------------------------------------------------------------|
D|-%-------|-------------------------0---2---3-------------------------------|-----------------------------------------------------------------|
A|---------|-------------0---2---3-------------------------------------------|-----------------------------------------------------------------|
E|---------|-0---1---3-------------------------------------------------------|-----------------------------------------------------------------|

E|-17--15--13--12--10--8---7---5---3---1---0-----------------------|----------------------------------------|
B|---------------------------------------------3---1---0-----------|----------------------------------------|
G|---------------------------------------------------------2---0---|----------------------------------------|
D|-----------------------------------------------------------------|-3---2---0------------------------------|
A|-----------------------------------------------------------------|-------------3---2---0------------------|
E|-----------------------------------------------------------------|-------------------------3---1---0------|

E|---------|---------------------------------------------------------1---3---|-5---6---8---10--11--13--15--17--18--20--22--23--22--20--18--17--|
B|---------|---------------------------------------------1---3---4-----------|-----------------------------------------------------------------|
G|-%-------|---------------------------------0---2---3-----------------------|-----------------------------------------------------------------|
D|-%-------|---------------------0---1---3-----------------------------------|-----------------------------------------------------------------|
A|---------|---------0---1---3-----------------------------------------------|-----------------------------------------------------------------|
E|---------|-1---3-----------------------------------------------------------|-----------------------------------------------------------------|

E|-15--13--11--10--8---6---5---3---1-------------------------------|-------------------------------------|
B|-------------------------------------4---3---1-------------------|-------------------------------------|
G|-------------------------------------------------3---2---0-------|--------------------------------%----|
D|-------------------------------------------------------------3---|-1---0--------------------------%----|
A|-----------------------------------------------------------------|---------3---1---0-------------------|
E|-----------------------------------------------------------------|---------------------3---1-----------|

E|---------|---------------------------------------------------------1---3---|-4---6---8---9---11--13--15--16--18--20--21--23--21--20--18--16--|
B|---------|---------------------------------------------1---2---4-----------|-----------------------------------------------------------------|
G|-%-------|---------------------------------0---1---3-----------------------|-----------------------------------------------------------------|
D|-%-------|-------------------------1---3-----------------------------------|-----------------------------------------------------------------|
A|---------|-------------1---3---4-------------------------------------------|-----------------------------------------------------------------|
E|---------|-1---3---4-------------------------------------------------------|-----------------------------------------------------------------|

E|-15--13--11--9---8---6---4---3---1-------------------------------|-------------------------------------|
B|-------------------------------------4---2---1-------------------|-------------------------------------|
G|-------------------------------------------------3---1---0-------|--------------------------------%----|
D|-------------------------------------------------------------3---|-1------------------------------%----|
A|-----------------------------------------------------------------|-----4---3---1-----------------------|
E|-----------------------------------------------------------------|-----------------4---3---1-----------|

E|---------|---------------------------------------------------------0---2---|-3---5---7---8---10--12--14--15--17--19--20--22--24--22--20--19--|
B|---------|---------------------------------------------0---1---3-----------|-----------------------------------------------------------------|
G|-%-------|-------------------------------------0---2-----------------------|-----------------------------------------------------------------|
D|-%-------|-------------------------0---2---4-------------------------------|-----------------------------------------------------------------|
A|---------|-------------0---2---3-------------------------------------------|-----------------------------------------------------------------|
E|---------|-0---2---3-------------------------------------------------------|-----------------------------------------------------------------|

E|-17--15--14--12--10--8---7---5---3---2---0-----------------------|----------------------------------------|
B|---------------------------------------------3---1---0-----------|----------------------------------------|
G|---------------------------------------------------------2---0---|----------------------------------------|
D|-----------------------------------------------------------------|-4---2---0------------------------------|
A|-----------------------------------------------------------------|-------------3---2---0------------------|
E|-----------------------------------------------------------------|-------------------------3---2---0------|

E|---------|---------------------------------------------------------0---1---|-3---5---6---8---10--12--13--15--17--18--20--22--24--22--20--18--|
B|---------|-------------------------------------------------1---3-----------|-----------------------------------------------------------------|
G|-%-------|-------------------------------------0---2---3-------------------|-----------------------------------------------------------------|
D|-%-------|-------------------------0---2---3-------------------------------|-----------------------------------------------------------------|
A|---------|-------------0---1---3-------------------------------------------|-----------------------------------------------------------------|
E|---------|-0---1---3-------------------------------------------------------|-----------------------------------------------------------------|

E|-17--15--13--12--10--8---6---5---3---1---0-----------------------|----------------------------------------|
B|---------------------------------------------3---1---------------|----------------------------------------|
G|-----------------------------------------------------3---2---0---|----------------------------------------|
D|-----------------------------------------------------------------|-3---2---0------------------------------|
A|-----------------------------------------------------------------|-------------3---1---0------------------|
E|-----------------------------------------------------------------|-------------------------3---1---0------|

E|---------|---------------------------------------------------------1---3---|-4---6---8---10--11--13--15--16--18--20--22--23--22--20--18--16--|
B|---------|---------------------------------------------1---3---4-----------|-----------------------------------------------------------------|
G|-%-------|---------------------------------0---1---3-----------------------|-----------------------------------------------------------------|
D|-%-------|---------------------0---1---3-----------------------------------|-----------------------------------------------------------------|
A|---------|-------------1---3-----------------------------------------------|-----------------------------------------------------------------|
E|---------|-1---3---4-------------------------------------------------------|-----------------------------------------------------------------|

E|-15--13--11--10--8---6---4---3---1-------------------------------|-------------------------------------|
B|-------------------------------------4---3---1-------------------|-------------------------------------|
G|-------------------------------------------------3---1---0-------|--------------------------------%----|
D|-------------------------------------------------------------3---|-1---0--------------------------%----|
A|-----------------------------------------------------------------|---------3---1-----------------------|
E|-----------------------------------------------------------------|-----------------4---3---1-----------|

E|---------|---------------------------------------------------------1---2---|-4---6---8---9---11--13--14--16--18--20--21--23--21--20--18--16--|
B|---------|---------------------------------------------1---2---4-----------|-----------------------------------------------------------------|
G|-%-------|-------------------------------------1---3-----------------------|-----------------------------------------------------------------|
D|-%-------|-------------------------1---3---4-------------------------------|-----------------------------------------------------------------|
A|---------|-------------1---3---4-------------------------------------------|-----------------------------------------------------------------|
E|---------|-1---2---4-------------------------------------------------------|-----------------------------------------------------------------|

E|-14--13--11--9---8---6---4---2---1-------------------------------|-------------------------------------|
B|-------------------------------------4---2---1-------------------|-------------------------------------|
G|-------------------------------------------------3---1-----------|--------------------------------%----|
D|---------------------------------------------------------4---3---|-1------------------------------%----|
A|-----------------------------------------------------------------|-----4---3---1-----------------------|
E|-----------------------------------------------------------------|-----------------4---2---1-----------|

E|---------|-----------------------------|
B|---------|-----------------------------|
G|-%-------|-5-----%----5-----%----5-----|
D|-%-------|-5-----%----5-----%----5-----|
A|---------|-3----------3----------3-----|
E|---------|-----------------------------|
c scales
c_scales.gp4