Guns N' Roses - 14 Years

Guns N' Roses - 14 Years

Guns N Roses



Title: 14 Years
Album: 
Artist: 
Author: Guns n Roses

Track 1: Rhythm Guitar 1
D#|-------------------------------------|-------------------------------------|-------------------------------------|
A#|-------------------------------------|-------------------------------------|-------------------------------------|
F#|-------------------------------------|-------------------------------------|-------------------------------------|
C#|-----------7--------------7----------|-----------5--------------5----------|-----------3--------------3----------|
G#|-------------------------------------|-------------------------------------|-------------------------------------|
D#|-5----5---------0----5----------0----|-3----3---------0----3----------0----|-1----1---------0----1----------1----|

D#|-------------------------------|-------------------------------------|-------------------------------------|
A#|-------------------------------|-------------------------------------|-------------------------------------|
F#|-------------------------------|-------------------------------------|-------------------------------------|
C#|-------------------2----2------|-----------7--------------7----------|-----------5--------------5----------|
G#|-------------------------------|-------------------------------------|-------------------------------------|
D#|-0----0----3---4---------------|-5----5---------0----5----------0----|-3----3---------0----3----------0----|

D#|-------------------------------------|-----------------------------------------------|
A#|-------------------------------------|-----------------------------------------------|
F#|-------------------------------------|-----------------------------------------------|
C#|-----------3--------------3----------|-------------------2----2-----------------2----|
G#|-------------------------------------|-----------------------------2-----------------|
D#|-1----1---------0----1----------1----|-0----0----3---4------------------3---4--------|

D#|-------------------------------------|-------------------------------------|-------------------------------------|
A#|-------------------------------------|-------------------------------------|-------------------------------------|
F#|-------------------------------------|-------------------------------------|-------------------------------------|
C#|-----------7--------------7----------|-----------5--------------5----------|-----------3--------------3----------|
G#|-------------------------------------|-------------------------------------|-------------------------------------|
D#|-5----5---------0----5----------0----|-3----3---------0----3----------0----|-1----1---------0----1----------1----|

D#|-----------------------------------------------|-------------------------------------|
A#|-----------------------------------------------|-------------------------------------|
F#|-----------------------------------------------|-------------------------------------|
C#|-------------------2----2-----------------2----|-----------7--------------7----------|
G#|-----------------------------2-----------------|-------------------------------------|
D#|-0----0----3---4------------------3---4--------|-5----5---------0----5----------0----|

D#|-------------------------------------|-------------------------------------|-----------------------------------------------|
A#|-------------------------------------|-------------------------------------|-----------------------------------------------|
F#|-------------------------------------|-------------------------------------|-----------------------------------------------|
C#|-----------5--------------5----------|-----------3--------------3----------|-------------------2----2-----------------2----|
G#|-------------------------------------|-------------------------------------|-----------------------------2-----------------|
D#|-3----3---------0----3----------0----|-1----1---------0----1----------1----|-0----0----3---4------------------3---4--------|

D#|---------------------------------|-------------------------------------|-------------------------------------|
A#|---------------------------------|-5-----5----5----5----5----5----5----|-7-----7----7----7----7----7----7----|
F#|-2-----2-----2----2----2----2----|-5-----5----5----5----5----5----5----|-7-----7----7----7----7----7----7----|
C#|-2-----2-----2----2----2----2----|-5-----5----5----5----5----5----5----|-7-----7----7----7----7----7----7----|
G#|-0-----0-----0----0----0----0----|-3-----3----3----3----3----3----3----|-5-----5----5----5----5----5----5----|
D#|---------------------------------|-------------------------------------|-------------------------------------|

D#|-----------------------------------------|---------------------------------|-------------------------------------|
A#|-7----7----7----7----7----7----7----7----|---------------------------------|-5-----5----5----5----5----5----5----|
F#|-7----7----7----7----7----7----7----7----|-2-----2-----2----2----2----2----|-5-----5----5----5----5----5----5----|
C#|-7----7----7----7----7----7----7----7----|-2-----2-----2----2----2----2----|-5-----5----5----5----5----5----5----|
G#|-5----5----5----5----5----5----5----5----|-0-----0-----0----0----0----0----|-3-----3----3----3----3----3----3----|
D#|-----------------------------------------|---------------------------------|-------------------------------------|

D#|-------------------------------------|-----------------------------------------|
A#|-7-----7----7----7----7----7----7----|-7----7----7----7----7----7----7----7----|
F#|-7-----7----7----7----7----7----7----|-7----7----7----7----7----7----7----7----|
C#|-7-----7----7----7----7----7----7----|-7----7----7----7----7----7----7----7----|
G#|-5-----5----5----5----5----5----5----|-5----5----5----5----5----5----5----5----|
D#|-------------------------------------|-----------------------------------------|

D#|---------------------------------|-------------------------------------|-------------------------------------|
A#|---------------------------------|-5-----5----5----5----5----5----5----|-7-----7----7----7----7----7----7----|
F#|-2-----2-----2----2----2----2----|-5-----5----5----5----5----5----5----|-7-----7----7----7----7----7----7----|
C#|-2-----2-----2----2----2----2----|-5-----5----5----5----5----5----5----|-7-----7----7----7----7----7----7----|
G#|-0-----0-----0----0----0----0----|-3-----3----3----3----3----3----3----|-5-----5----5----5----5----5----5----|
D#|---------------------------------|-------------------------------------|-------------------------------------|

D#|-----------------------------------------|---------------------------------|-------------------------------------|
A#|-7----7----7----7----7----7----7----7----|---------------------------------|-5-----5----5----5----5----5----5----|
F#|-7----7----7----7----7----7----7----7----|-2-----2-----2----2----2----2----|-5-----5----5----5----5----5----5----|
C#|-7----7----7----7----7----7----7----7----|-2-----2-----2----2----2----2----|-5-----5----5----5----5----5----5----|
G#|-5----5----5----5----5----5----5----5----|-0-----0-----0----0----0----0----|-3-----3----3----3----3----3----3----|
D#|-----------------------------------------|---------------------------------|-------------------------------------|

D#|-------------------------------------|-----------------------------------------|
A#|-7-----7----7----7----7----7----7----|-7----7----7----7----7----7----7----7----|
F#|-7-----7----7----7----7----7----7----|-7----7----7----7----7----7----7----7----|
C#|-7-----7----7----7----7----7----7----|-7----7----7----7----7----7----7----7----|
G#|-5-----5----5----5----5----5----5----|-5----5----5----5----5----5----5----5----|
D#|-------------------------------------|-----------------------------------------|

D#|---------|-3-------|-2-------|-2-------|---------|-3-------|-2-------|-2-------|
A#|---------|-3-------|-3-------|-3-------|---------|-3-------|-3-------|-3-------|
F#|-2-------|-0-------|-2-------|-2-------|-2-------|-0-------|-2-------|-2-------|
C#|-2-------|-0-------|-0-------|-0-------|-2-------|-0-------|-0-------|-0-------|
G#|-0-------|-X-------|-0-------|-0-------|-0-------|-X-------|-0-------|-0-------|
D#|---------|-3-------|---------|---------|---------|-3-------|---------|---------|

D#|-------------------------------------|-------------------------------------|-------------------------------------|
A#|-------------------------------------|-------------------------------------|-------------------------------------|
F#|-------------------------------------|-------------------------------------|-------------------------------------|
C#|-----------7--------------7----------|-----------5--------------5----------|-----------3--------------3----------|
G#|-------------------------------------|-------------------------------------|-------------------------------------|
D#|-5----5---------0----5----------0----|-3----3---------0----3----------0----|-1----1---------0----1----------1----|

D#|-----------------------------------------------|-------------------------------------|
A#|-----------------------------------------------|-------------------------------------|
F#|-----------------------------------------------|-------------------------------------|
C#|-------------------2----2-----------------2----|-----------7--------------7----------|
G#|-----------------------------2-----------------|-------------------------------------|
D#|-0----0----3---4------------------3---4--------|-5----5---------0----5----------0----|

D#|-------------------------------------|-------------------------------------|-----------------------------------------------|
A#|-------------------------------------|-------------------------------------|-----------------------------------------------|
F#|-------------------------------------|-------------------------------------|-----------------------------------------------|
C#|-----------5--------------5----------|-----------3--------------3----------|-------------------2----2-----------------2----|
G#|-------------------------------------|-------------------------------------|-----------------------------2-----------------|
D#|-3----3---------0----3----------0----|-1----1---------0----1----------1----|-0----0----3---4------------------3---4--------|

D#|-------------------------------------|-------------------------------------|-------------------------------------|
A#|-------------------------------------|-------------------------------------|-------------------------------------|
F#|-------------------------------------|-------------------------------------|-------------------------------------|
C#|-----------7--------------7----------|-----------5--------------5----------|-----------3--------------3----------|
G#|-------------------------------------|-------------------------------------|-------------------------------------|
D#|-5----5---------0----5----------0----|-3----3---------0----3----------0----|-1----1---------0----1----------1----|

D#|-------------------------------|-------------------------------------|-------------------------------------|
A#|-------------------------------|-------------------------------------|-------------------------------------|
F#|-------------------------------|-------------------------------------|-------------------------------------|
C#|-------------------2----2------|-----------7--------------7----------|-----------5--------------5----------|
G#|-------------------------------|-------------------------------------|-------------------------------------|
D#|-0----0----3---4---------------|-5----5---------0----5----------0----|-3----3---------0----3----------0----|

D#|-------------------------------------|-----------------------------------------------|
A#|-------------------------------------|-----------------------------------------------|
F#|-------------------------------------|-----------------------------------------------|
C#|-----------3--------------3----------|-------------------2----2-----------------2----|
G#|-------------------------------------|-----------------------------2-----------------|
D#|-1----1---------0----1----------1----|-0----0----3---4------------------3---4--------|

D#|-------------------------------------|-------------------------------------|-------------------------------------|
A#|-------------------------------------|-------------------------------------|-------------------------------------|
F#|-------------------------------------|-------------------------------------|-------------------------------------|
C#|-----------7--------------7----------|-----------5--------------5----------|-----------3--------------3----------|
G#|-------------------------------------|-------------------------------------|-------------------------------------|
D#|-5----5---------0----5----------0----|-3----3---------0----3----------0----|-1----1---------0----1----------1----|

D#|-----------------------------------------------|-------------------------------------|
A#|-----------------------------------------------|-------------------------------------|
F#|-----------------------------------------------|-------------------------------------|
C#|-------------------2----2-----------------2----|-----------7--------------7----------|
G#|-----------------------------2-----------------|-------------------------------------|
D#|-0----0----3---4------------------3---4--------|-5----5---------0----5----------0----|

D#|-------------------------------------|-------------------------------------|-----------------------------------------------|
A#|-------------------------------------|-------------------------------------|-----------------------------------------------|
F#|-------------------------------------|-------------------------------------|-----------------------------------------------|
C#|-----------5--------------5----------|-----------3--------------3----------|-------------------2----2-----------------2----|
G#|-------------------------------------|-------------------------------------|-----------------------------2-----------------|
D#|-3----3---------0----3----------0----|-1----1---------0----1----------1----|-0----0----3---4------------------3---4--------|

D#|---------------------------------|-------------------------------------|-------------------------------------|
A#|---------------------------------|-5-----5----5----5----5----5----5----|-7-----7----7----7----7----7----7----|
F#|-2-----2-----2----2----2----2----|-5-----5----5----5----5----5----5----|-7-----7----7----7----7----7----7----|
C#|-2-----2-----2----2----2----2----|-5-----5----5----5----5----5----5----|-7-----7----7----7----7----7----7----|
G#|-0-----0-----0----0----0----0----|-3-----3----3----3----3----3----3----|-5-----5----5----5----5----5----5----|
D#|---------------------------------|-------------------------------------|-------------------------------------|

D#|-----------------------------------------|---------------------------------|-------------------------------------|
A#|-7----7----7----7----7----7----7----7----|---------------------------------|-5-----5----5----5----5----5----5----|
F#|-7----7----7----7----7----7----7----7----|-2-----2-----2----2----2----2----|-5-----5----5----5----5----5----5----|
C#|-7----7----7----7----7----7----7----7----|-2-----2-----2----2----2----2----|-5-----5----5----5----5----5----5----|
G#|-5----5----5----5----5----5----5----5----|-0-----0-----0----0----0----0----|-3-----3----3----3----3----3----3----|
D#|-----------------------------------------|---------------------------------|-------------------------------------|

D#|-------------------------------------|-----------------------------------------|
A#|-7-----7----7----7----7----7----7----|-7----7----7----7----7----7----7----7----|
F#|-7-----7----7----7----7----7----7----|-7----7----7----7----7----7----7----7----|
C#|-7-----7----7----7----7----7----7----|-7----7----7----7----7----7----7----7----|
G#|-5-----5----5----5----5----5----5----|-5----5----5----5----5----5----5----5----|
D#|-------------------------------------|-----------------------------------------|

D#|---------------------------------|-------------------------------------|-------------------------------------|
A#|---------------------------------|-5-----5----5----5----5----5----5----|-7-----7----7----7----7----7----7----|
F#|-2-----2-----2----2----2----2----|-5-----5----5----5----5----5----5----|-7-----7----7----7----7----7----7----|
C#|-2-----2-----2----2----2----2----|-5-----5----5----5----5----5----5----|-7-----7----7----7----7----7----7----|
G#|-0-----0-----0----0----0----0----|-3-----3----3----3----3----3----3----|-5-----5----5----5----5----5----5----|
D#|---------------------------------|-------------------------------------|-------------------------------------|

D#|-----------------------------------------|---------------------------------|-------------------------------------|
A#|-7----7----7----7----7----7----7----7----|---------------------------------|-5-----5----5----5----5----5----5----|
F#|-7----7----7----7----7----7----7----7----|-2-----2-----2----2----2----2----|-5-----5----5----5----5----5----5----|
C#|-7----7----7----7----7----7----7----7----|-2-----2-----2----2----2----2----|-5-----5----5----5----5----5----5----|
G#|-5----5----5----5----5----5----5----5----|-0-----0-----0----0----0----0----|-3-----3----3----3----3----3----3----|
D#|-----------------------------------------|---------------------------------|-------------------------------------|

D#|-------------------------------------|-----------------------------------------|
A#|-7-----7----7----7----7----7----7----|-7----7----7----7----7----7----7----7----|
F#|-7-----7----7----7----7----7----7----|-7----7----7----7----7----7----7----7----|
C#|-7-----7----7----7----7----7----7----|-7----7----7----7----7----7----7----7----|
G#|-5-----5----5----5----5----5----5----|-5----5----5----5----5----5----5----5----|
D#|-------------------------------------|-----------------------------------------|

D#|---------|-3-------|-2-------|-2-------|---------|-3-------|-2-------|-2-------|
A#|---------|-3-------|-3-------|-3-------|---------|-3-------|-3-------|-3-------|
F#|-2-------|-0-------|-2-------|-2-------|-2-------|-0-------|-2-------|-2-------|
C#|-2-------|-0-------|-0-------|-0-------|-2-------|-0-------|-0-------|-0-------|
G#|-0-------|-X-------|-0-------|-0-------|-0-------|-X-------|-0-------|-0-------|
D#|---------|-3-------|---------|---------|---------|-3-------|---------|---------|

D#|-----------------------------|-3-----3-----3----3----3-----|-2-----2-----2----2----2-----|
A#|-----------------------------|-3-----3-----3----3----3-----|-3-----3-----3----3----3-----|
F#|-2-----2-----2----2----2-----|-0-----0-----0----0----0-----|-2-----2-----2----2----2-----|
C#|-2-----2-----2----2----2-----|-0-----0-----0----0----0-----|-0-----0-----0----0----0-----|
G#|-0-----0-----0----0----0-----|-----------------------------|-0-----0-----0----0----0-----|
D#|-----------------------------|-3-----3-----3----3----3-----|-----------------------------|

D#|-2-----2-----2----2----2-----|-----------------------------|-3-----3-----3----3----3-----|
A#|-3-----3-----3----3----3-----|-----------------------------|-3-----3-----3----3----3-----|
F#|-2-----2-----2----2----2-----|-2-----2-----2----2----2-----|-0-----0-----0----0----0-----|
C#|-0-----0-----0----0----0-----|-2-----2-----2----2----2-----|-0-----0-----0----0----0-----|
G#|-0-----0-----0----0----0-----|-0-----0-----0----0----0-----|-----------------------------|
D#|-----------------------------|-----------------------------|-3-----3-----3----3----3-----|

D#|-2-----2-----2----2----2-----|-2-----2-----2----2----2-----|---------------------------------|
A#|-3-----3-----3----3----3-----|-3-----3-----3----3----3-----|---------------------------------|
F#|-2-----2-----2----2----2-----|-2-----2-----2----2----2-----|-2-----2-----2----2----2----2----|
C#|-0-----0-----0----0----0-----|-0-----0-----0----0----0-----|-2-----2-----2----2----2----2----|
G#|-0-----0-----0----0----0-----|-0-----0-----0----0----0-----|-0-----0-----0----0----0----0----|
D#|-----------------------------|-----------------------------|---------------------------------|

D#|---------------------------------|---------------------------------|---------------------------------|
A#|-5-----5-----5----5----5----5----|-7-----7-----7----7----7----7----|-7-----7-----7----7----7----7----|
F#|-5-----5-----5----5----5----5----|-7-----7-----7----7----7----7----|-7-----7-----7----7----7----7----|
C#|-5-----5-----5----5----5----5----|-7-----7-----7----7----7----7----|-7-----7-----7----7----7----7----|
G#|-3-----3-----3----3----3----3----|-5-----5-----5----5----5----5----|-5-----5-----5----5----5----5----|
D#|---------------------------------|---------------------------------|---------------------------------|

D#|---------------------------------|---------------------------------|---------------------------------|
A#|---------------------------------|-5-----5-----5----5----5----5----|-7-----7-----7----7----7----7----|
F#|-2-----2-----2----2----2----2----|-5-----5-----5----5----5----5----|-7-----7-----7----7----7----7----|
C#|-2-----2-----2----2----2----2----|-5-----5-----5----5----5----5----|-7-----7-----7----7----7----7----|
G#|-0-----0-----0----0----0----0----|-3-----3-----3----3----3----3----|-5-----5-----5----5----5----5----|
D#|---------------------------------|---------------------------------|---------------------------------|

D#|---------------------------------|---------------------------------|---------------------------------|
A#|-7-----7-----7----7----7----7----|-7-----7-----7----7----7----7----|-7-----7-----7----7----7----7----|
F#|-7-----7-----7----7----7----7----|-7-----7-----7----7----7----7----|-7-----7-----7----7----7----7----|
C#|-7-----7-----7----7----7----7----|-7-----7-----7----7----7----7----|-7-----7-----7----7----7----7----|
G#|-5-----5-----5----5----5----5----|-5-----5-----5----5----5----5----|-5-----5-----5----5----5----5----|
D#|---------------------------------|---------------------------------|---------------------------------|

D#|---------------------------------|---------------------------------|---------------------------------|
A#|-7-----7-----7----7----7----7----|-7-----7-----7----7----7----7----|-7-----7-----7----7----7----7----|
F#|-7-----7-----7----7----7----7----|-7-----7-----7----7----7----7----|-7-----7-----7----7----7----7----|
C#|-7-----7-----7----7----7----7----|-7-----7-----7----7----7----7----|-7-----7-----7----7----7----7----|
G#|-5-----5-----5----5----5----5----|-5-----5-----5----5----5----5----|-5-----5-----5----5----5----5----|
D#|---------------------------------|---------------------------------|---------------------------------|

D#|---------------------------------|-------------------------------------|-------------------------------------|
A#|-7-----7-----7----7----7----7----|-------------------------------------|-------------------------------------|
F#|-7-----7-----7----7----7----7----|-------------------------------------|-------------------------------------|
C#|-7-----7-----7----7----7----7----|-----------7--------------7----------|-----------5--------------5----------|
G#|-5-----5-----5----5----5----5----|-------------------------------------|-------------------------------------|
D#|---------------------------------|-5----5---------0----5----------0----|-3----3---------0----3----------0----|

D#|-------------------------------------|-------------------------------|-------------------------------------|
A#|-------------------------------------|-------------------------------|-------------------------------------|
F#|-------------------------------------|-------------------------------|-------------------------------------|
C#|-----------3--------------3----------|-------------------2----2------|-----------7--------------7----------|
G#|-------------------------------------|-------------------------------|-------------------------------------|
D#|-1----1---------0----1----------1----|-0----0----3---4---------------|-5----5---------0----5----------0----|

D#|-------------------------------------|-------------------------------------|-----------------------------------------------|
A#|-------------------------------------|-------------------------------------|-----------------------------------------------|
F#|-------------------------------------|-------------------------------------|-----------------------------------------------|
C#|-----------5--------------5----------|-----------3--------------3----------|-------------------2----2-----------------2----|
G#|-------------------------------------|-------------------------------------|-----------------------------2-----------------|
D#|-3----3---------0----3----------0----|-1----1---------0----1----------1----|-0----0----3---4------------------3---4--------|

D#|-------------------------------------|-------------------------------------|-------------------------------------|
A#|-------------------------------------|-------------------------------------|-------------------------------------|
F#|-------------------------------------|-------------------------------------|-------------------------------------|
C#|-----------7--------------7----------|-----------5--------------5----------|-----------3--------------3----------|
G#|-------------------------------------|-------------------------------------|-------------------------------------|
D#|-5----5---------0----5----------0----|-3----3---------0----3----------0----|-1----1---------0----1----------1----|

D#|-----------------------------------------------|-------------------------------------|
A#|-----------------------------------------------|-------------------------------------|
F#|-----------------------------------------------|-------------------------------------|
C#|-------------------2----2-----------------2----|-----------7--------------7----------|
G#|-----------------------------2-----------------|-------------------------------------|
D#|-0----0----3---4------------------3---4--------|-5----5---------0----5----------0----|

D#|-------------------------------------|-------------------------------------|-----------------------------------------------|
A#|-------------------------------------|-------------------------------------|-----------------------------------------------|
F#|-------------------------------------|-------------------------------------|-----------------------------------------------|
C#|-----------5--------------5----------|-----------3--------------3----------|-------------------2----2-----------------2----|
G#|-------------------------------------|-------------------------------------|-----------------------------2-----------------|
D#|-3----3---------0----3----------0----|-1----1---------0----1----------1----|-0----0----3---4------------------3---4--------|

D#|---------------------------------|-------------------------------------|-------------------------------------|
A#|---------------------------------|-5-----5----5----5----5----5----5----|-7-----7----7----7----7----7----7----|
F#|-2-----2-----2----2----2----2----|-5-----5----5----5----5----5----5----|-7-----7----7----7----7----7----7----|
C#|-2-----2-----2----2----2----2----|-5-----5----5----5----5----5----5----|-7-----7----7----7----7----7----7----|
G#|-0-----0-----0----0----0----0----|-3-----3----3----3----3----3----3----|-5-----5----5----5----5----5----5----|
D#|---------------------------------|-------------------------------------|-------------------------------------|

D#|-----------------------------------------|---------------------------------|-------------------------------------|
A#|-7----7----7----7----7----7----7----7----|---------------------------------|-5-----5----5----5----5----5----5----|
F#|-7----7----7----7----7----7----7----7----|-2-----2-----2----2----2----2----|-5-----5----5----5----5----5----5----|
C#|-7----7----7----7----7----7----7----7----|-2-----2-----2----2----2----2----|-5-----5----5----5----5----5----5----|
G#|-5----5----5----5----5----5----5----5----|-0-----0-----0----0----0----0----|-3-----3----3----3----3----3----3----|
D#|-----------------------------------------|---------------------------------|-------------------------------------|

D#|-------------------------------------|-----------------------------------------|
A#|-7-----7----7----7----7----7----7----|-7----7----7----7----7----7----7----7----|
F#|-7-----7----7----7----7----7----7----|-7----7----7----7----7----7----7----7----|
C#|-7-----7----7----7----7----7----7----|-7----7----7----7----7----7----7----7----|
G#|-5-----5----5----5----5----5----5----|-5----5----5----5----5----5----5----5----|
D#|-------------------------------------|-----------------------------------------|

D#|---------------------------------|-------------------------------------|-------------------------------------|
A#|---------------------------------|-5-----5----5----5----5----5----5----|-7-----7----7----7----7----7----7----|
F#|-2-----2-----2----2----2----2----|-5-----5----5----5----5----5----5----|-7-----7----7----7----7----7----7----|
C#|-2-----2-----2----2----2----2----|-5-----5----5----5----5----5----5----|-7-----7----7----7----7----7----7----|
G#|-0-----0-----0----0----0----0----|-3-----3----3----3----3----3----3----|-5-----5----5----5----5----5----5----|
D#|---------------------------------|-------------------------------------|-------------------------------------|

D#|-----------------------------------------|---------|---------|-------------------|
A#|-7----7----7----7----7----7----7----7----|---------|-5-------|-5-------5---------|
F#|-7----7----7----7----7----7----7----7----|-2-------|-5-------|-5-------5---------|
C#|-7----7----7----7----7----7----7----7----|-2-------|-5-------|-5-------5---------|
G#|-5----5----5----5----5----5----5----5----|-0-------|-3-------|-3-------3----3----|
D#|-----------------------------------------|---------|---------|-------------------|

D#|-----------------------------|---------|---------|---------|---------|
A#|-----------------------------|---------|-5-------|-5-------|-5-------|
F#|-----------------------------|-2-------|-5-------|-5-------|-5-------|
C#|-----------------------------|-2-------|-5-------|-5-------|-5-------|
G#|-3-----2----2----0-----------|-0-------|-3-------|-3-------|-3-------|
D#|-----------------------3-----|---------|---------|---------|---------|
Guns N' Roses - 14 Years
Guns N' Roses - 14 Years.gp3