Guns N' Roses - Ain't It Fun

Guns N Roses



Title: Ain't It Fun
Album: 
Artist: 
Author: Guns N' Roses

Track 1: Guitare 1
E|-------------------|------------------------|----------------------|---------|---------|
B|-------------------|------------------------|----------------------|---------|---------|
G|-------------------|------------------------|----------------------|---------|---------|
D|-------------------|------------------7-----|-7--9---9-------9-----|-9-------|-9-------|
A|-------------------|--------7----9----------|----------------------|---------|---------|
E|-7-------7----9----|-10---------------------|----------------------|---------|---------|

E|----------------------------------------------|------5------5-----7----5----|-7-------|
B|--------------------3----5----3----5--7---7---|-7---------------------------|-7-------|
G|-------2--4---4-------------------------------|-----------------------------|---------|
D|-9--------------------------------------------|-----------------------------|---------|
A|----------------------------------------------|-----------------------------|---------|
E|----------------------------------------------|-----------------------------|---------|

E|-7-----------10---12---12----|-12-----14---12---10----|-10-----10--------------|---------|
B|-7-----12--------------------|------------------------|-------------12----10---|-10------|
G|-----------------------------|------------------------|------------------------|---------|
D|-----------------------------|------------------------|------------------------|---------|
A|-----------------------------|------------------------|------------------------|---------|
E|-----------------------------|------------------------|------------------------|---------|

E|-----------------------------------------|-----------7--------------------------------|
B|-12---10---7-----------------------------|------7---------10--------------------------|
G|----------------11---9----7----9----7----|-9-------------------9---9----7---9----7----|
D|-----------------------------------------|--------------------------------------------|
A|-----------------------------------------|--------------------------------------------|
E|-----------------------------------------|--------------------------------------------|

E|---------------------------------|---------|---------------------------------|----------------------------|
B|---------------------------------|---------|---------------------------------|----------------------------|
G|-9-----7---------7----6----------|---------|-------------7----9----7----9----|-9------11---9----7----9----|
D|------------9---------------7----|-9-------|-9-----7-------------------------|----------------------------|
A|---------------------------------|---------|---------------------------------|----------------------------|
E|---------------------------------|---------|---------------------------------|----------------------------|

E|------------------------------------|-------------------|-------------10------------------|
B|------------------------------------|-------------------|------------------10-------------|
G|-7-----9----7----9----9-----9---7---|-9-----7-----------|-7----9----------------11---9----|
D|------------------------------------|-----------9-------|---------------------------------|
A|------------------------------------|-------------------|---------------------------------|
E|------------------------------------|-------------------|---------------------------------|

E|-----------------------------------------|-----------7--------------7----------|---------|
B|-----------------------------------------|------7---------7----10--------------|---------|
G|-7----9----7----7----7----7----9----7----|-9-----------------------------7-----|---------|
D|-----------------------------------------|-------------------------------------|-9-------|
A|-----------------------------------------|-------------------------------------|---------|
E|-----------------------------------------|-------------------------------------|---------|

E|-------------------------------------|------------------------------------------|
B|---------------------------10---10---|------------------------------------------|
G|-----------7----9----9---------------|-9----9----7----9----9----7-----9----7----|
D|-9----9------------------------------|------------------------------------------|
A|-------------------------------------|------------------------------------------|
E|-------------------------------------|------------------------------------------|

E|----------------------------------------------|---------|---------------|---------|
B|----------------------------------------------|---------|---------------|---------|
G|-9----9----7----9---------7---------6---------|---------|--------%------|-%-------|
D|---------------------9---------9---------7----|-9-------|-9------%------|-%-------|
A|----------------------------------------------|---------|---------------|---------|
E|----------------------------------------------|---------|---------------|---------|

E|----------------------------------------|---------------|---------|---------|-------------------------------------|
B|------0---------------------------------|---------------|---------|---------|--------------------------------3----|
G|-%--------0------------------------2----|-4-------4-----|-%-------|-%-------|-%----4----4-----2----4----4---------|
D|-%------------0---------------5---------|---------------|-%-------|-%-------|-%-----------------------------------|
A|-------------------------5--------------|---------------|---------|---------|-------------------------------------|
E|--------------------3-------------------|---------------|---------|---------|-------------------------------------|

E|---------|---------|---------------|---------------------------------|---------|---------|
B|-3-------|-3-------|-3-------------|-----------------------3---------|---------|---------|
G|---------|---------|---------%-----|-%-----4-----4----4---------2----|-4-------|-4-------|
D|---------|---------|---------%-----|-%-------------------------------|---------|---------|
A|---------|---------|---------------|---------------------------------|---------|---------|
E|---------|---------|---------------|---------------------------------|---------|---------|

E|---------|---------|-----------------------------------------|-----------------------------------------|
B|---------|---------|-----------------------------------------|-----------------------------------------|
G|-%-------|-%-------|-----------------------------------------|-----------------------------------------|
D|-%-------|-%-------|-9----9----9----9----9----9----9----9----|-9----9----9----9----9----8----7----6----|
A|---------|---------|-9----9----9----9----9----9----9----9----|-9----9----9----9----9----8----7----6----|
E|---------|---------|-7----7----7----7----7----7----7----7----|-7----7----7----7----7----6----5----4----|

E|-----------------------------------------|-----------------------------------------|
B|-----------------------------------------|-----------------------------------------|
G|-----------------------------------------|-----------------------------------------|
D|-5----5----5----5----5----5----5----5----|-7----7----7----7----7----7----7----7----|
A|-5----5----5----5----5----5----5----5----|-7----7----7----7----7----7----7----7----|
E|-3----3----3----3----3----3----3----3----|-5----5----5----5----5----5----5----5----|

E|-----------------------------------------------|-----------------------------------------------|
B|-----------------------------------------------|-----------------------------------------------|
G|-----------------------------------------------|-----------------------------------------------|
D|-9----9---9--------9----9------------9---------|-9----9---9--------9----9------------9---------|
A|-9----9---9---0----9----9----0---0---9----0----|-9----9---9---0----9----9----0---0---9----0----|
E|-7----7---7--------7----7------------7---------|-7----7---7--------7----7------------7---------|

E|-----------------------------------------|-----------------------------------------|
B|-----------------------------------------|-----------------------------------------|
G|-----------------------------------------|-----------------------------------------|
D|-5----5----5----5----5----5----5----5----|-7----7----7----7----7----7----7----7----|
A|-5----5----5----5----5----5----5----5----|-7----7----7----7----7----7----7----7----|
E|-3----3----3----3----3----3----3----3----|-5----5----5----5----5----5----5----5----|

E|-----------------------------------------------|-----------------------------------------------|
B|-----------------------------------------------|-----------------------------------------------|
G|-----------------------------------------------|-----------------------------------------------|
D|-9----9---9--------9----9------------9---------|-9----9---9--------9----9------------9---------|
A|-9----9---9---0----9----9----0---0---9----0----|-9----9---9---0----9----9----0---0---9----0----|
E|-7----7---7--------7----7------------7---------|-7----7---7--------7----7------------7---------|

E|-----------------------------------------|-----------------------------------------|
B|-----------------------------------------|-----------------------------------------|
G|-----------------------------------------|-----------------------------------------|
D|-5----5----5----5----5----5----5----5----|-7----7----7----7----7----7----7----7----|
A|-5----5----5----5----5----5----5----5----|-7----7----7----7----7----7----7----7----|
E|-3----3----3----3----3----3----3----3----|-5----5----5----5----5----5----5----5----|

E|-------------------|---------------------------------|------------------------|---------|
B|--------------7----|-9----9------10---9----7---------|-7------9---------------|---------|
G|--------------7----|-9----9------10---9----7----9----|-7------9----7----------|---------|
D|-9-------9---------|---------------------------------|-------------------9----|-9-------|
A|-------------------|---------------------------------|------------------------|---------|
E|-------------------|---------------------------------|------------------------|---------|

E|--------------------|---------|---------------------------------------|--------------------|
B|--------------------|---------|-------------3----5----3----5--7---7---|-7------------------|
G|-------%-----%------|-%-------|-%-----4-------------------------------|------4------4------|
D|-9-----%-----%------|-%-------|-%-------------------------------------|--------------------|
A|--------------------|---------|---------------------------------------|--------------------|
E|--------------------|---------|---------------------------------------|--------------------|

E|--------------------|---------|------------------------------------------5----|-7-------|
B|--------------------|---------|-----------3----5----7----3----5--7---7--------|---------|
G|-4----4------%------|-%-------|-%----4----------------------------------------|---------|
D|-------------%------|-%-------|-%---------------------------------------------|---------|
A|--------------------|---------|-----------------------------------------------|---------|
E|--------------------|---------|-----------------------------------------------|---------|

E|-7----7-----------------|---------|-------------------10------|---------|---------------|
B|------------------------|---------|-----------------------10--|-12------|-12------------|
G|------------%----%------|-%-------|-%------%-----%------------|---------|--------%------|
D|------------%----%------|-%-------|-%------%-----%------------|---------|--------%------|
A|------------------------|---------|---------------------------|---------|---------------|
E|------------------------|---------|---------------------------|---------|---------------|

E|--------------10----|--------12---12----10---10---|-10------|-----------------------------------------|
B|--------------------|-10--------------------------|---------|-----------------------------------------|
G|-%------%-----------|-----------------------------|---------|-----------------------------------------|
D|-%------%-----------|-----------------------------|---------|-9----9----9----9----9----8----7----6----|
A|--------------------|-----------------------------|---------|-9----9----9----9----9----8----7----6----|
E|--------------------|-----------------------------|---------|-7----7----7----7----7----6----5----4----|

E|-----------------------------------------|-----------------------------------------|
B|-----------------------------------------|-----------------------------------------|
G|-----------------------------------------|-----------------------------------------|
D|-5----5----5----5----5----5----5----5----|-7----7----7----7----7----7----7----7----|
A|-5----5----5----5----5----5----5----5----|-7----7----7----7----7----7----7----7----|
E|-3----3----3----3----3----3----3----3----|-5----5----5----5----5----5----5----5----|

E|-----------------------------------------|-----------------------------------------|
B|-----------------------------------------|-----------------------------------------|
G|-----------------------------------------|-----------------------------------------|
D|-12---12---12---12---12---12---12---12---|-9----9----9----9----9----9----9----9----|
A|-12---12---12---12---12---12---12---12---|-9----9----9----9----9----9----9----9----|
E|-10---10---10---10---10---10---10---10---|-7----7----7----7----7----7----7----7----|

E|-----------------------------------------|-----------------------------------------|
B|-----------------------------------------|-----------------------------------------|
G|-----------------------------------------|-----------------------------------------|
D|-5----5----5----5----5----5----5----5----|-7----7----7----7----7----7----7----7----|
A|-5----5----5----5----5----5----5----5----|-7----7----7----7----7----7----7----7----|
E|-3----3----3----3----3----3----3----3----|-5----5----5----5----5----5----5----5----|

E|-----------------------------------------|-----------------------------------------|
B|-----------------------------------------|-----------------------------------------|
G|-----------------------------------------|-----------------------------------------|
D|-12---12---12---12---12---12---12---12---|-9----9----9----9----9----9----9----9----|
A|-12---12---12---12---12---12---12---12---|-9----9----9----9----9----9----9----9----|
E|-10---10---10---10---10---10---10---10---|-7----7----7----7----7----7----7----7----|

E|-----------------------------------------|-----------------------------------------|
B|-----------------------------------------|-----------------------------------------|
G|-----------------------------------------|-----------------------------------------|
D|-5----5----5----5----5----5----5----5----|-7----7----7----7----7----7----7----7----|
A|-5----5----5----5----5----5----5----5----|-7----7----7----7----7----7----7----7----|
E|-3----3----3----3----3----3----3----3----|-5----5----5----5----5----5----5----5----|

E|-----------------------------------------------|-----------------------------------------------|
B|-----------------------------------------------|-----------------------------------------------|
G|-----------------------------------------------|-----------------------------------------------|
D|-9----9---9--------9----9------------9---------|-9----9---9--------9----9------------9---------|
A|-9----9---9---0----9----9----0---0---9----0----|-9----9---9---0----9----9----0---0---9----0----|
E|-7----7---7--------7----7------------7---------|-7----7---7--------7----7------------7---------|

E|-----------------------------------------|-----------------------------------------|
B|-----------------------------------------|-----------------------------------------|
G|-----------------------------------------|-----------------------------------------|
D|-5----5----5----5----5----5----5----5----|-7----7----7----7----7----7----7----7----|
A|-5----5----5----5----5----5----5----5----|-7----7----7----7----7----7----7----7----|
E|-3----3----3----3----3----3----3----3----|-5----5----5----5----5----5----5----5----|

E|-----------------------------------------------|-----------------------------------------------|
B|-----------------------------------------------|-----------------------------------------------|
G|-----------------------------------------------|-----------------------------------------------|
D|-9----9---9--------9----9------------9---------|-9----9---9--------9----9------------9---------|
A|-9----9---9---0----9----9----0---0---9----0----|-9----9---9---0----9----9----0---0---9----0----|
E|-7----7---7--------7----7------------7---------|-7----7---7--------7----7------------7---------|

E|-14-----14----14----14----|-14----14----14----14----14----14----|-14----14----14-----------------------------|
B|-17-----17----17----17----|-17----17----17----17----17----17----|-17----17----17----17---17---15---17---15---|
G|--------------------------|-------------------------------------|--------------------------------------------|
D|--------------------------|-------------------------------------|--------------------------------------------|
A|--------------------------|-------------------------------------|--------------------------------------------|
E|--------------------------|-------------------------------------|--------------------------------------------|

E|-------------------------------------|-14---17-----17--------14---17---|-12-----10---10---10--------7----|
B|-15---15------------------------15---|---------------------------------|-----------------------7---------|
G|-----------16---16---16----16--------|------------------%--------------|---------------------------------|
D|-------------------------------------|------------------%--------------|---------------------------------|
A|-------------------------------------|---------------------------------|---------------------------------|
E|-------------------------------------|---------------------------------|---------------------------------|

E|-------------------------------------|---------------|---------------|---------|----------------------------------------|
B|-7----10-----------------------------|---------------|---------------|---------|------0---------------------------------|
G|-----------9-----9---9----7----6-----|-4-----4-------|-4------%------|-%-------|-%--------0------------------------2----|
D|-------------------------------------|---------------|--------%------|-%-------|-%------------0---------------5---------|
A|-------------------------------------|---------------|---------------|---------|-------------------------5--------------|
E|-------------------------------------|---------------|---------------|---------|--------------------3-------------------|

E|---------------|---------|---------|-------------------------------------|---------|
B|---------------|---------|---------|--------------------------------3----|-3-------|
G|-4-------4-----|-%-------|-%-------|-%----4----4-----2----4----4---------|---------|
D|---------------|-%-------|-%-------|-%-----------------------------------|---------|
A|---------------|---------|---------|-------------------------------------|---------|
E|---------------|---------|---------|-------------------------------------|---------|

E|---------|---------------|---------------------------------|---------|---------|---------|
B|-3-------|-3-------------|-----------------------3---------|---------|---------|---------|
G|---------|---------%-----|-%-----4-----4----4---------2----|-4-------|-4-------|-%-------|
D|---------|---------%-----|-%-------------------------------|---------|---------|-%-------|
A|---------|---------------|---------------------------------|---------|---------|---------|
E|---------|---------------|---------------------------------|---------|---------|---------|

E|---------|-----------------------------------------|-----------------------------------------|
B|---------|-----------------------------------------|-----------------------------------------|
G|-%-------|-----------------------------------------|-----------------------------------------|
D|-%-------|-9----9----9----9----9----9----9----9----|-9----9----9----9----9----8----7----6----|
A|---------|-9----9----9----9----9----9----9----9----|-9----9----9----9----9----8----7----6----|
E|---------|-7----7----7----7----7----7----7----7----|-7----7----7----7----7----6----5----4----|

E|-----------------------------------------|-----------------------------------------|
B|-----------------------------------------|-----------------------------------------|
G|-----------------------------------------|-----------------------------------------|
D|-5----5----5----5----5----5----5----5----|-7----7----7----7----7----7----7----7----|
A|-5----5----5----5----5----5----5----5----|-7----7----7----7----7----7----7----7----|
E|-3----3----3----3----3----3----3----3----|-5----5----5----5----5----5----5----5----|

E|-----------------------------------------------|-----------------------------------------------|
B|-----------------------------------------------|-----------------------------------------------|
G|-----------------------------------------------|-----------------------------------------------|
D|-9----9---9--------9----9------------9---------|-9----9---9--------9----9------------9---------|
A|-9----9---9---0----9----9----0---0---9----0----|-9----9---9---0----9----9----0---0---9----0----|
E|-7----7---7--------7----7------------7---------|-7----7---7--------7----7------------7---------|

E|-----------------------------------------|-----------------------------------------|
B|-----------------------------------------|-----------------------------------------|
G|-----------------------------------------|-----------------------------------------|
D|-5----5----5----5----5----5----5----5----|-7----7----7----7----7----7----7----7----|
A|-5----5----5----5----5----5----5----5----|-7----7----7----7----7----7----7----7----|
E|-3----3----3----3----3----3----3----3----|-5----5----5----5----5----5----5----5----|

E|-----------------10---9----7---------|-----------------------------------------|-------7-------|
B|------------7-------------------10---|-7---------------------------------------|-------X-------|
G|-------7-----------------------------|------7----9----7------------------------|-------X-------|
D|-9-----------------------------------|---------------------9---------7---------|-------X-------|
A|-9-----------------------------------|--------------------------9---------7----|-5-------------|
E|-7-----------------------------------|-----------------------------------------|-------7-------|
Guns N' Roses - Ain't It Fun
Guns N' Roses - Ain't It Fun.gp3