Guns N' Roses - Back Off Bitch

Guns N' Roses - Back Off Bitch

Guns N Roses



Title: Back Off Bitch
Album: 
Artist: 
Author: Guns N'Roses

Track 1: Guitar 1
D#|---------|---------|---------|---------|---------|---------|---------|---------|
A#|---------|---------|---------|---------|---------|---------|---------|---------|
F#|-%-------|---------|---------|---------|---------|---------|---------|---------|
C#|-%-------|-9-------|-9-------|-7-------|-7-------|-7-------|-7-------|-7-------|
G#|---------|-7-------|-7-------|-5-------|-5-------|-4-------|-4-------|-5-------|
D#|---------|---------|---------|---------|---------|---------|---------|---------|

D#|---------|---------|---------|---------|---------|---------|---------|---------------|
A#|---------|---------|---------|---------|---------|---------|---------|---------------|
F#|---------|---------|---------|---------|---------|---------|---------|---------------|
C#|-7-------|-9-------|-9-------|-7-------|-7-------|-7-------|-7-------|-7-------7-----|
G#|-5-------|-7-------|-7-------|-5-------|-5-------|-4-------|-4-------|-5-------5-----|
D#|---------|---------|---------|---------|---------|---------|---------|---------------|

D#|-----------------------------------------|----------------------------------------|
A#|-----------------------------------------|----------------------------------------|
F#|-----------------------------------------|----------------------------------------|
C#|-7----7----7----7----7----7----7----7----|-9----------X---X---9----7----X----X----|
G#|-5----5----5----5----5----5----5----5----|-7----------X---X---7----5----X----X----|
D#|-----------------------------------------|-------0--------------------------------|

D#|-----------------------------|----------------------------------------|-----------------------------|
A#|-----------------------------|----------------------------------------|-----------------------------|
F#|-----------------------------|----------------------------------------|-----------------------------|
C#|-7------7----7----7----------|-2----------X---X---9----7----X----X----|-7------7----7----7----------|
G#|-4------5----5----5----------|------------X---X---7----5----X----X----|-4------5----5----5----------|
D#|------------------------3----|-------0--------------------------------|------------------------3----|

D#|----------------------------------------|-----------------------------|----------------------------------------|
A#|----------------------------------------|-----------------------------|----------------------------------------|
F#|----------------------------------------|-----------------------------|----------------------------------------|
C#|-2----------X---X---9----7----X----X----|-7------7----7----7----------|-2----------X---X---9----7----X----X----|
G#|------------X---X---7----5----X----X----|-4------5----5----5----------|------------X---X---7----5----X----X----|
D#|-------0--------------------------------|------------------------3----|-------0--------------------------------|

D#|-------------------------|---------------|---------------|---------------|---------|
A#|-------------------------|---------------|---------------|---------------|---------|
F#|-------------------------|---------------|---------------|---------------|---------|
C#|-7------7----7----7------|-9-------9-----|-7-------7-----|-7-------7-----|-7-------|
G#|-4------5----5----5------|-7-------7-----|-5-------5-----|-4-------4-----|-5-------|
D#|-------------------------|---------------|---------------|---------------|---------|

D#|---------------|---------------|---------------|---------------------------------|
A#|---------------|---------------|---------------|---------------------------------|
F#|---------------|---------------|---------%-----|-------------%--------------%----|
C#|-9-------9-----|-7-------7-----|-7-------%-----|-7------7----%----X----7----%----|
G#|-7-------7-----|-5-------5-----|-4-------------|-5------5---------X----5---------|
D#|---------------|---------------|---------------|---------------------------------|

D#|---------------------------------|-------------------------------------|-------------------------------------|
A#|---------------------------------|-------------------------------------|-------------------------------------|
F#|---------------------------------|-------------------------------------|-------------------------------------|
C#|-------2--------------2----------|-5-----5--------------5----5---------|-7-----7--------------7----7---------|
G#|-------2----X----X----2----------|-5-----5----X----X----5----5---------|-7-----7----X----X----7----7---------|
D#|-0----------0----0----------0----|-3----------3----3--------------3----|-5----------5----5--------------5----|

D#|---------------------------------|---------------------------------|-------------------------------------|
A#|---------------------------------|---------------------------------|-------------------------------------|
F#|-7-----7--------------7----9-----|---------------------------------|-------------------------------------|
C#|-7-----7----X----X----7----9-----|-------2--------------2----------|-5-----5--------------5----5---------|
G#|-5----------5----5---------------|-------2----X----X----2----------|-5-----5----X----X----5----5---------|
D#|---------------------------------|-0----------0----0----------0----|-3----------3----3--------------3----|

D#|-------------------------------------|---------------------------------|---------------------------------|
A#|-------------------------------------|---------------------------------|---------------------------------|
F#|-------------------------------------|-7-----7----7----7----7----9-----|---------------------------------|
C#|-7-----7--------------7----7---------|-7-----7----7----7----7----9-----|-------2--------------2----------|
G#|-7-----7----X----X----7----7---------|-5-----5----5----5----5----7-----|-------2----X----X----2----------|
D#|-5----------5----5--------------5----|---------------------------------|-0----------0----0----------0----|

D#|-------------------------------------|----------------------------------------|---------------------------------|
A#|-------------------------------------|----------------------------------------|---------------------------------|
F#|-------------------------------------|----------------------------------------|-7-----7----7----7----7----9-----|
C#|-5-----5--------------5----5---------|-7-----7----7-----------------7----7----|-7-----7----7----7----7----9-----|
G#|-5-----5----X----X----5----5---------|-7-----7----7-----------------7----7----|-5-----5----5----5----5----7-----|
D#|-3----------3----3--------------3----|-5-----5----5----5---5---5----5----5----|---------------------------------|

D#|---------------------------------|----------------------------------------|-----------------------------------------|
A#|---------------------------------|----------------------------------------|-----------------------------------------|
F#|---------------------------------|----------------------------------------|----------------%------------------------|
C#|-------9----7----7-----7---------|--------------9----7----7-----7---------|-----------9----%----7---------7---------|
G#|-------7----5----5-----4----5----|--------------7----5----5-----4----5----|-----------7---------5----0----4----0----|
D#|-0-------------------------------|-0----0---0-----------------------------|-0----0----------------------------------|

D#|-------------------------------------|----------------------------------------|----------------------------------------|
A#|-------------------------------------|----------------------------------------|----------------------------------------|
F#|-------------------------------------|----------------------------------------|----------------------------------------|
C#|-7--------------7----7-----7---------|--------------9----7----7-----7---------|--------------9----7----7-----7---------|
G#|-5----0----4----5----5-----4----5----|--------------7----5----5-----4----5----|--------------7----5----5-----4----5----|
D#|-------------------------------------|-0----0---0-----------------------------|-0----0---0-----------------------------|

D#|-----------------------------------------|-------------------------------------|
A#|-----------------------------------------|-------------------------------------|
F#|----------------%------------------------|-------------------------------------|
C#|-----------9----%----7---------7---------|-7--------------7----7-----7---------|
G#|-----------7---------5----0----4----0----|-5----0----4----5----5-----4----5----|
D#|-0----0----------------------------------|-------------------------------------|

D#|----------------------------------------|----------------------------------------|
A#|----------------------------------------|----------------------------------------|
F#|----------------------------------------|----------------------------------------|
C#|--------------9----7----7-----7---------|--------------9----7----7-----7---------|
G#|--------------7----5----5-----4----5----|--------------7----5----5-----4----5----|
D#|-0----0---0-----------------------------|-0----0---0-----------------------------|

D#|----------------------------------------|----------------------------|---------|
A#|----------------------------------------|----------------------------|---------|
F#|----------------------------------------|----------------------------|-0-------|
C#|--------------9----7----7-----7---------|-7---------7----7----7------|-0-------|
G#|--------------7----5----5-----4----5----|-5----0----4----5----5------|---------|
D#|-0----0---0-----------------------------|----------------------------|-3-------|

D#|------------------------|---------------------------------------|---------------------------------------|
A#|------------------------|---------------------------------------|---------------------------------------|
F#|-2------2---------------|--------------9------------------7-----|--------------9------------------7-----|
C#|-2------2---------------|------X---X---9-----X----X---X---7-----|------X---X---9-----X----X---X---7-----|
G#|-0------0---------------|-X----7---7---------7----7---7---------|-X----7---7---------7----7---7---------|
D#|-------------0----3-----|-0-------------------------------------|-0-------------------------------------|

D#|---------|------------------------|---------------------------------------|---------------------------------------|
A#|---------|------------------------|---------------------------------------|---------------------------------------|
F#|-0-------|-2------2---------------|--------------9------------------7-----|--------------9------------------7-----|
C#|-0-------|-2------2---------------|------X---X---9-----X----X---X---7-----|------X---X---9-----X----X---X---7-----|
G#|---------|-0------0---------------|-X----7---7---------7----7---7---------|-X----7---7---------7----7---7---------|
D#|-3-------|-------------0----3-----|-0-------------------------------------|-0-------------------------------------|

D#|---------|---------|---------|---------------------------------|---------|---------|
A#|---------|---------|---------|---------------------------------|---------|---------|
F#|-9-------|---------|---------|-%-------------------------------|-9-------|---------|
C#|-9-------|---------|---------|-%-------------------------------|-9-------|---------|
G#|-7-------|-5-------|-7-------|------7----7----7----7-----7-----|-7-------|-5-------|
D#|---------|-3-------|-5-------|------5----5----5----5-----5-----|---------|-3-------|

D#|---------|---------------------------------|---------------------------------|-------------------------------------|
A#|---------|---------------------------------|---------------------------------|-------------------------------------|
F#|---------|-%-------------------------------|---------------------------------|-------------------------------------|
C#|---------|-%-------------------------------|-------2--------------2----------|-5-----5--------------5----5---------|
G#|-7-------|------7----7----7----7-----7-----|-------2----X----X----2----------|-5-----5----X----X----5----5---------|
D#|-5-------|------5----5----5----5-----5-----|-0----------0----0----------0----|-3----------3----3--------------3----|

D#|-------------------------------------|---------------------------------|---------------------------------|
A#|-------------------------------------|---------------------------------|---------------------------------|
F#|-------------------------------------|-7-----7--------------7----9-----|---------------------------------|
C#|-7-----7--------------7----7---------|-7-----7----X----X----7----9-----|-------2--------------2----------|
G#|-7-----7----X----X----7----7---------|-5----------5----5---------------|-------2----X----X----2----------|
D#|-5----------5----5--------------5----|---------------------------------|-0----------0----0----------0----|

D#|-------------------------------------|-------------------------------------|---------------------------------|
A#|-------------------------------------|-------------------------------------|---------------------------------|
F#|-------------------------------------|-------------------------------------|-7-----7----7----7----7----9-----|
C#|-5-----5--------------5----5---------|-7-----7--------------7----7---------|-7-----7----7----7----7----9-----|
G#|-5-----5----X----X----5----5---------|-7-----7----X----X----7----7---------|-5-----5----5----5----5----7-----|
D#|-3----------3----3--------------3----|-5----------5----5--------------5----|---------------------------------|

D#|---------------------------------|----------------------------------------|-----------------------------------------|
A#|---------------------------------|----------------------------------------|-----------------------------------------|
F#|---------------------------------|----------------------------------------|----------------%------------------------|
C#|-------9----7----7-----7---------|--------------9----7----7-----7---------|-----------9----%----7---------7---------|
G#|-------7----5----5-----4----5----|--------------7----5----5-----4----5----|-----------7---------5----0----4----0----|
D#|-0-------------------------------|-0----0---0-----------------------------|-0----0----------------------------------|

D#|-------------------------------------|----------------------------------------|----------------------------------------|
A#|-------------------------------------|----------------------------------------|----------------------------------------|
F#|-------------------------------------|----------------------------------------|----------------------------------------|
C#|-7--------------7----7-----7---------|--------------9----7----7-----7---------|--------------9----7----7-----7---------|
G#|-5----0----4----5----5-----4----5----|--------------7----5----5-----4----5----|--------------7----5----5-----4----5----|
D#|-------------------------------------|-0----0---0-----------------------------|-0----0---0-----------------------------|

D#|-----------------------------------------|-------------------------------------|
A#|-----------------------------------------|-------------------------------------|
F#|----------------%------------------------|-------------------------------------|
C#|-----------9----%----7---------7---------|-7--------------7----7-----7---------|
G#|-----------7---------5----0----4----0----|-5----0----4----5----5-----4----5----|
D#|-0----0----------------------------------|-------------------------------------|

D#|----------------------------------------|----------------------------------------|
A#|----------------------------------------|----------------------------------------|
F#|----------------------------------------|----------------------------------------|
C#|--------------9----7----7-----7---------|--------------9----7----7-----7---------|
G#|--------------7----5----5-----4----5----|--------------7----5----5-----4----5----|
D#|-0----0---0-----------------------------|-0----0---0-----------------------------|

D#|----------------------------------------|----------------------------|---------|
A#|----------------------------------------|----------------------------|---------|
F#|----------------------------------------|----------------------------|-0-------|
C#|--------------9----7----7-----7---------|-7---------7----7----7------|-0-------|
G#|--------------7----5----5-----4----5----|-5----0----4----5----5------|---------|
D#|-0----0---0-----------------------------|----------------------------|-3-------|

D#|------------------------|---------------------------------------|---------------------------------------|
A#|------------------------|---------------------------------------|---------------------------------------|
F#|-2------2---------------|--------------9------------------7-----|--------------9------------------7-----|
C#|-2------2---------------|------X---X---9-----X----X---X---7-----|------X---X---9-----X----X---X---7-----|
G#|-0------0---------------|-X----7---7---------7----7---7---------|-X----7---7---------7----7---7---------|
D#|-------------0----3-----|-0-------------------------------------|-0-------------------------------------|

D#|---------|------------------------|---------------------------------------|---------------------------------------|
A#|---------|------------------------|---------------------------------------|---------------------------------------|
F#|-0-------|-2------2---------------|--------------9------------------7-----|--------------9------------------7-----|
C#|-0-------|-2------2---------------|------X---X---9-----X----X---X---7-----|------X---X---9-----X----X---X---7-----|
G#|---------|-0------0---------------|-X----7---7---------7----7---7---------|-X----7---7---------7----7---7---------|
D#|-3-------|-------------0----3-----|-0-------------------------------------|-0-------------------------------------|

D#|---------|---------|---------|---------------------------------|---------|---------|
A#|---------|---------|---------|---------------------------------|---------|---------|
F#|-9-------|---------|---------|-%-------------------------------|-9-------|---------|
C#|-9-------|---------|---------|-%-------------------------------|-9-------|---------|
G#|-7-------|-5-------|-7-------|------7----7----7----7-----7-----|-7-------|-5-------|
D#|---------|-3-------|-5-------|------5----5----5----5-----5-----|---------|-3-------|

D#|---------|---------------------------------|--------------------|--------------------|
A#|---------|---------------------------------|--------------------|--------------------|
F#|---------|-%-------------------------------|--------------------|--------------------|
C#|---------|-%-------------------------------|--------------------|-2------2----2------|
G#|-7-------|------7----7----7----7-----7-----|-4------4----4------|-0------0----0------|
D#|-5-------|------5----5----5----5-----5-----|-2------2----2------|--------------------|

D#|--------------------|--------------------|--------------------|--------------------|
A#|--------------------|--------------------|--------------------|--------------------|
F#|--------------------|--------------------|--------------------|--------------------|
C#|--------------------|-2------2----2------|-4------4----4------|-7------7----7------|
G#|-4------4----4------|-0------0----0------|-2------2----2------|-5------5----5------|
D#|-2------2----2------|--------------------|--------------------|--------------------|

D#|--------------------|----------------------------|--------------------|--------------------|
A#|--------------------|----------------------------|--------------------|--------------------|
F#|--------------------|----------------------------|--------------------|--------------------|
C#|-4------4----4------|-7------7----5--------------|--------------------|-2------2----2------|
G#|-2------2----2------|-5------5----3----7----5----|-4------4----4------|-0------0----0------|
D#|--------------------|------------------5----3----|-2------2----2------|--------------------|

D#|--------------------|--------------------|--------------------|--------------------|
A#|--------------------|--------------------|--------------------|--------------------|
F#|--------------------|--------------------|--------------------|--------------------|
C#|--------------------|-2------2----2------|-4------4----4------|-7------7----7------|
G#|-4------4----4------|-0------0----0------|-2------2----2------|-5------5----5------|
D#|-2------2----2------|--------------------|--------------------|--------------------|

D#|--------------------|---------------|----------------------------------------|-----------------------------|
A#|--------------------|---------------|----------------------------------------|-----------------------------|
F#|--------------------|---------------|----------------------------------------|-----------------------------|
C#|-4------4----4------|-7------8------|-9----------X---X---9----7----X----X----|-7------7----7----7----------|
G#|-2------2----2------|-5------6------|-7----------X---X---7----5----X----X----|-4------5----5----5----------|
D#|--------------------|---------------|-------0--------------------------------|------------------------3----|

D#|----------------------------------------|-----------------------------|----------------------------------------|
A#|----------------------------------------|-----------------------------|----------------------------------------|
F#|----------------------------------------|-----------------------------|----------------------------------------|
C#|-2----------X---X---9----7----X----X----|-7------7----7----7----------|-2----------X---X---9----7----X----X----|
G#|------------X---X---7----5----X----X----|-4------5----5----5----------|------------X---X---7----5----X----X----|
D#|-------0--------------------------------|------------------------3----|-------0--------------------------------|

D#|-----------------------------|----------------------------------------|-------------------------|
A#|-----------------------------|----------------------------------------|-------------------------|
F#|-----------------------------|----------------------------------------|-------------------------|
C#|-7------7----7----7----------|-2----------X---X---9----7----X----X----|-7------7----7----7------|
G#|-4------5----5----5----------|------------X---X---7----5----X----X----|-4------5----5----5------|
D#|------------------------3----|-------0--------------------------------|-------------------------|

D#|---------------------------------|-------------------------------------|-------------------------------------|
A#|---------------------------------|-------------------------------------|-------------------------------------|
F#|---------------------------------|-------------------------------------|-------------------------------------|
C#|-------2--------------2----------|-5-----5--------------5----5---------|-7-----7--------------7----7---------|
G#|-------2----X----X----2----------|-5-----5----X----X----5----5---------|-7-----7----X----X----7----7---------|
D#|-0----------0----0----------0----|-3----------3----3--------------3----|-5----------5----5--------------5----|

D#|---------------------------------|---------------------------------|-------------------------------------|
A#|---------------------------------|---------------------------------|-------------------------------------|
F#|-7-----7--------------7----9-----|---------------------------------|-------------------------------------|
C#|-7-----7----X----X----7----9-----|-------2--------------2----------|-5-----5--------------5----5---------|
G#|-5----------5----5---------------|-------2----X----X----2----------|-5-----5----X----X----5----5---------|
D#|---------------------------------|-0----------0----0----------0----|-3----------3----3--------------3----|

D#|-------------------------------------|---------------------------------|---------------------------------|
A#|-------------------------------------|---------------------------------|---------------------------------|
F#|-------------------------------------|-7-----7----7----7----7----9-----|---------------------------------|
C#|-7-----7--------------7----7---------|-7-----7----7----7----7----9-----|-------9----7----7-----7---------|
G#|-7-----7----X----X----7----7---------|-5-----5----5----5----5----7-----|-------7----5----5-----4----5----|
D#|-5----------5----5--------------5----|---------------------------------|-0-------------------------------|

D#|----------------------------------------|-----------------------------------------|
A#|----------------------------------------|-----------------------------------------|
F#|----------------------------------------|----------------%------------------------|
C#|--------------9----7----7-----7---------|-----------9----%----7---------7---------|
G#|--------------7----5----5-----4----5----|-----------7---------5----0----4----0----|
D#|-0----0---0-----------------------------|-0----0----------------------------------|

D#|-------------------------------------|----------------------------------------|----------------------------------------|
A#|-------------------------------------|----------------------------------------|----------------------------------------|
F#|-------------------------------------|----------------------------------------|----------------------------------------|
C#|-7--------------7----7-----7---------|--------------9----7----7-----7---------|--------------9----7----7-----7---------|
G#|-5----0----4----5----5-----4----5----|--------------7----5----5-----4----5----|--------------7----5----5-----4----5----|
D#|-------------------------------------|-0----0---0-----------------------------|-0----0---0-----------------------------|

D#|-----------------------------------------|-------------------------------------|
A#|-----------------------------------------|-------------------------------------|
F#|----------------%------------------------|-------------------------------------|
C#|-----------9----%----7---------7---------|-7--------------7----7-----7---------|
G#|-----------7---------5----0----4----0----|-5----0----4----5----5-----4----5----|
D#|-0----0----------------------------------|-------------------------------------|

D#|----------------------------------------|----------------------------------------|
A#|----------------------------------------|----------------------------------------|
F#|----------------------------------------|----------------------------------------|
C#|--------------9----7----7-----7---------|--------------9----7----7-----7---------|
G#|--------------7----5----5-----4----5----|--------------7----5----5-----4----5----|
D#|-0----0---0-----------------------------|-0----0---0-----------------------------|

D#|----------------------------------------|----------------------------|----------------------------------------|
A#|----------------------------------------|----------------------------|----------------------------------------|
F#|----------------------------------------|----------------------------|----------------------------------------|
C#|--------------9----7----7-----7---------|-7---------7----7----7------|--------------9----7----7-----7---------|
G#|--------------7----5----5-----4----5----|-5----0----4----5----5------|--------------7----5----5-----4----5----|
D#|-0----0---0-----------------------------|----------------------------|-0----0---0-----------------------------|

D#|----------------------------------------|----------------------------------------|
A#|----------------------------------------|----------------------------------------|
F#|----------------------------------------|----------------------------------------|
C#|--------------9----7----7-----7---------|--------------9----7----7-----7---------|
G#|--------------7----5----5-----4----5----|--------------7----5----5-----4----5----|
D#|-0----0---0-----------------------------|-0----0---0-----------------------------|

D#|----------------------------|---------|------------------------|---------------------------------------|
A#|----------------------------|---------|------------------------|---------------------------------------|
F#|----------------------------|-0-------|-2------2---------------|--------------9------------------7-----|
C#|-7---------7----7----7------|-0-------|-2------2---------------|------X---X---9-----X----X---X---7-----|
G#|-5----0----4----5----5------|---------|-0------0---------------|-X----7---7---------7----7---7---------|
D#|----------------------------|-3-------|-------------0----3-----|-0-------------------------------------|

D#|---------------------------------------|---------|------------------------|---------------------------------------|
A#|---------------------------------------|---------|------------------------|---------------------------------------|
F#|--------------9------------------7-----|-0-------|-2------2---------------|--------------9------------------7-----|
C#|------X---X---9-----X----X---X---7-----|-0-------|-2------2---------------|------X---X---9-----X----X---X---7-----|
G#|-X----7---7---------7----7---7---------|---------|-0------0---------------|-X----7---7---------7----7---7---------|
D#|-0-------------------------------------|-3-------|-------------0----3-----|-0-------------------------------------|

D#|---------------------------------------|---------|------------------------|---------------------------------------|
A#|---------------------------------------|---------|------------------------|---------------------------------------|
F#|--------------9------------------7-----|-0-------|-2------2---------------|--------------9------------------7-----|
C#|------X---X---9-----X----X---X---7-----|-0-------|-2------2---------------|------X---X---9-----X----X---X---7-----|
G#|-X----7---7---------7----7---7---------|---------|-0------0---------------|-X----7---7---------7----7---7---------|
D#|-0-------------------------------------|-3-------|-------------0----3-----|-0-------------------------------------|

D#|---------------------------------------|---------|------------------------|-------------------------|
A#|---------------------------------------|---------|------------------------|-------------------------|
F#|--------------9------------------7-----|-0-------|-2------2---------------|-9-----%-----9-----%-----|
C#|------X---X---9-----X----X---X---7-----|-0-------|-2------2---------------|-9-----%-----9-----%-----|
G#|-X----7---7---------7----7---7---------|---------|-0------0---------------|-7-----------7-----------|
D#|-0-------------------------------------|-3-------|-------------0----3-----|-------------------------|

D#|-------------------------|---------|---------|---------|---------|--------------------|
A#|-------------------------|---------|---------|---------|---------|--------------------|
F#|-9-----%-----9-----%-----|-9-------|-9-------|-9-------|-9-------|-9-----%-----%------|
C#|-9-----%-----9-----%-----|-9-------|-9-------|-9-------|-9-------|-9-----%-----%------|
G#|-7-----------7-----------|-7-------|-7-------|-7-------|-7-------|-7------------------|
D#|-------------------------|---------|---------|---------|---------|--------------------|
Guns N' Roses - Back Off Bitch
Guns N' Roses - Back Off Bitch.gp3