Guns N' Roses - Bad Apples (2)

Guns N Roses



Title: Bad Apples
Album: Use Your Illusion I
Artist: Guns N' Roses
Author: 

Track 1: Guitar 1 (Slash)
D#|--------------------|-----------------------------------------------|-------------------------------------|
A#|--------------------|-----------------------------------------------|-------------------------------------|
F#|-%------------------|------12---12--12--%----12--%----12--%----12---|-12--------12--------------7---------|
C#|-%------------------|------12---12--12--%----12--%----12--%----12---|-12--------12--------------7---------|
G#|--------------------|-----------------------------------------------|-------------------------------------|
D#|------X---X---19----|-0---------------------------------------------|------0----------9----7---------0----|

D#|---------------------------------|-------------------------------------|---------------------------------|
A#|---------------------------------|-------------------------------------|---------------------------------|
F#|-----------12--------------7-----|-----------12--------------7---------|-----------12--------------7-----|
C#|-----------12--------------7-----|-----------12--------------7---------|-----------12--------------7-----|
G#|---------------------------------|-------------------------------------|---------------------------------|
D#|-0----0----------9----7----------|-0----0----------9----7---------0----|-0----0----------9----7----------|

D#|-------------------------------------|---------------------------------|-------------------------------------|
A#|-------------------------------------|---------------------------------|--------------------------------9----|
F#|-----------12--------------7---------|-----------12--------------7-----|-----------12----%----9----9----9----|
C#|-----------12--------------7---------|-----------12--------------7-----|-----------12----%----9----9----9----|
G#|-------------------------------------|---------------------------------|-------------------------------------|
D#|-0----0----------9----7---------0----|-0----0----------9----7----------|-0----0------------------------------|

D#|--------------------|---------------------------------|-------------------------------------|
A#|-9-----X------------|---------------------------------|-------------------------------------|
F#|-9-----X-----%------|---------------------------------|-------------------------------------|
C#|-9-----X-----%------|---------------------------------|-------------------------------------|
G#|--------------------|-0-----3--------------------0----|-0----0----3-------------------------|
D#|--------------------|-------------2----0----3---------|-----------------2----0----3----4----|

D#|---------------------------------|-------------------------------------|---------------------------------|
A#|---------------------------------|-------------------------------------|---------------------------------|
F#|---------------------------------|-------------------------------------|---------------------------------|
C#|---------------------------------|-------------------------------------|---------------------------------|
G#|-0-----3--------------------0----|-0----0----3-------------------------|-0-----3--------------------0----|
D#|-------------2----0----3---------|-----------------2----0----3----4----|-------------2----0----3---------|

D#|-------------------------------------|---------------------------------|-------------------------------------|
A#|-------------------------------------|---------------------------------|-------------------------------------|
F#|-------------------------------------|---------------------------------|-------------------------------------|
C#|-------------------------------------|---------------------------------|-------------------------------------|
G#|-0----0----3-------------------------|-0-----3--------------------0----|-0----0----3-------------------------|
D#|-----------------2----0----3----4----|-------------2----0----3---------|-----------------2----0----3----2----|

D#|-------------------------------------|-------------------------------------|-------------------------------------|
A#|-------------------------------------|-------------------------------------|-------------------------------------|
F#|-------------------------------------|-%-----------------------------------|-------------------------------------|
C#|----------------------2--------------|-%------------------------2----------|----------------------2--------------|
G#|-----------5-----4-------------------|---------------------5---------4-----|-----------5-----4-------------------|
D#|-0----0--------------------3----0----|------0----3----0--------------------|-0----0--------------------3----0----|

D#|-------------------------------------|-------------------------------------|-------------------------------------|
A#|-------------------------------------|-------------------------------------|-------------------------------------|
F#|-%-----------------------------------|-------------------------------------|-%-----------------------------------|
C#|-%------------------------2----------|----------------------2--------------|-%------------------------2----------|
G#|---------------------5---------4-----|-----------5-----4-------------------|---------------------5---------4-----|
D#|------0----3----0--------------------|-0----0--------------------3----0----|------0----3----0--------------------|

D#|-------------------------------------|-------------------------------------|---------------------------------|
A#|-------------------------------------|-------------------------------------|---------------------------------|
F#|-------------------------------------|-%-----------------------------------|---------------------------------|
C#|----------------------2--------------|-%------------------------2----------|---------------------------------|
G#|-----------5-----4-------------------|---------------------5---------4-----|-0-----3--------------------0----|
D#|-0----0--------------------3----0----|------0----3----0--------------------|-------------2----0----3---------|

D#|-------------------------------------|---------------------------------|-------------------------------------|
A#|-------------------------------------|---------------------------------|-------------------------------------|
F#|-------------------------------------|---------------------------------|-------------------------------------|
C#|-------------------------------------|---------------------------------|-------------------------------------|
G#|-0----0----3-------------------------|-0-----3--------------------0----|-0----0----3-------------------------|
D#|-----------------2----0----3----4----|-------------2----0----3---------|-----------------2----0----3----2----|

D#|-------------------------------------|-------------------------------------|-------------------------------------|
A#|-------------------------------------|-------------------------------------|-------------------------------------|
F#|-------------------------------------|-%-----------------------------------|-------------------------------------|
C#|----------------------2--------------|-%------------------------2----------|----------------------2--------------|
G#|-----------5-----4-------------------|---------------------5---------4-----|-----------5-----4-------------------|
D#|-0----0--------------------3----0----|------0----3----0--------------------|-0----0--------------------3----0----|

D#|-------------------------------------|-------------------------------------|-----------------------------------------|
A#|-------------------------------------|-------------------------------------|-----------------------------------------|
F#|-%-----------------------------------|-------------------------------------|-----------------------------------------|
C#|-%------------------------2----------|-0-----2----0----2----3----4---------|-----------------------------------------|
G#|---------------------5---------4-----|--------------------------------0----|-0----0----2----0----2----3----4---------|
D#|------0----3----0--------------------|-------------------------------------|------------------------------------0----|

D#|-----------------------------------------|-----------------------------------------|
A#|-----------------------------------------|-----------------------------------------|
F#|-----------------------------------------|-------------------------------%---------|
C#|-----------------------------------------|-------------------------------%----0----|
G#|------------------------------------2----|------2----------------------------------|
D#|-0----0----2----0----2----3----4---------|-4---------4----3----2----0--------------|

D#|-----------------------------------------|-----------------------------------------|
A#|-----------------------------------------|-----------------------------------------|
F#|-----------------------------------------|-----------------------------------------|
C#|-0----0----2----0----2----3----4---------|-----------------------------------------|
G#|------------------------------------0----|-0----0----2----0----2----3----4---------|
D#|-----------------------------------------|------------------------------------0----|

D#|-----------------------------------------|-----------------------------------------|
A#|-----------------------------------------|-----------------------------------------|
F#|-----------------------------------------|-------------------------------%---------|
C#|-----------------------------------------|-------------------------------%----0----|
G#|------------------------------------2----|------2----------------------------------|
D#|-0----0----2----0----2----3----4---------|-4---------4----3----2----0--------------|

D#|-----------------------------------------|-----------------------------------------|
A#|-----------------------------------------|-----------------------------------------|
F#|-----------------------------------------|-----------------------------------------|
C#|-0----0----2----0----2----3----4---------|-----------------------------------------|
G#|------------------------------------0----|-0----0----2----0----2----3----4---------|
D#|-----------------------------------------|------------------------------------0----|

D#|-----------------------------------------|-----------------------------------------|
A#|-----------------------------------------|-----------------------------------------|
F#|-----------------------------------------|-------------------------------%---------|
C#|-----------------------------------------|-------------------------------%----0----|
G#|------------------------------------2----|------2----------------------------------|
D#|-0----0----2----0----2----3----4---------|-4---------4----3----2----0--------------|

D#|-----------------------------------------|-----------------------------------------|
A#|-----------------------------------------|-----------------------------------------|
F#|-----------------------------------------|-----------------------------------------|
C#|-0----0----2----0----2----3----4---------|-----------------------------------------|
G#|------------------------------------0----|-0----0----2----0----2----3----4----0----|
D#|-----------------------------------------|-----------------------------------------|

D#|-----------------------------------------|-----------------------------|---------------------------------|
A#|-----------------------------------------|-------------------4----4----|-2-------------------------------|
F#|-----------------------------------------|-------%-----%-----4----4----|-2-------------------------------|
C#|-----------------------------------------|-------%-----%---------------|---------------------------------|
G#|-2----2----2----2----2----2----2----2----|-2---------------------------|-------3--------------------0----|
D#|-----------------------------------------|-----------------------------|-------------2----0----3---------|

D#|-------------------------------------|---------------------------------|-------------------------------------|
A#|-------------------------------------|---------------------------------|-------------------------------------|
F#|-------------------------------------|---------------------------------|-------------------------------------|
C#|-------------------------------------|---------------------------------|-------------------------------------|
G#|-0----0----3-------------------------|-0-----3--------------------0----|-0----0----3-------------------------|
D#|-----------------2----0----3----4----|-------------2----0----3---------|-----------------2----0----3----4----|

D#|---------------------------------|-------------------------------------|---------------------------------|
A#|---------------------------------|-------------------------------------|---------------------------------|
F#|---------------------------------|-------------------------------------|---------------------------------|
C#|---------------------------------|-------------------------------------|---------------------------------|
G#|-0-----3--------------------0----|-0----0----3-------------------------|-0-----3--------------------0----|
D#|-------------2----0----3---------|-----------------2----0----3----4----|-------------2----0----3---------|

D#|-------------------------------------|-------------------------------------|-------------------------------------|
A#|-------------------------------------|-------------------------------------|-------------------------------------|
F#|-------------------------------------|-------------------------------------|-%-----------------------------------|
C#|-------------------------------------|----------------------2--------------|-%------------------------2----------|
G#|-0----0----3-------------------------|-----------5-----4-------------------|---------------------5---------4-----|
D#|-----------------2----0----3----2----|-0----0--------------------3----0----|------0----3----0--------------------|

D#|-------------------------------------|-------------------------------------|-------------------------------------|
A#|-------------------------------------|-------------------------------------|-------------------------------------|
F#|-------------------------------------|-%-----------------------------------|-------------------------------------|
C#|----------------------2--------------|-%------------------------2----------|----------------------2--------------|
G#|-----------5-----4-------------------|---------------------5---------4-----|-----------5-----4-------------------|
D#|-0----0--------------------3----0----|------0----3----0--------------------|-0----0--------------------3----0----|

D#|-------------------------------------|-------------------------------------|-------------------------------------|
A#|-------------------------------------|-------------------------------------|-------------------------------------|
F#|-%-----------------------------------|-------------------------------------|-%-----------------------------------|
C#|-%------------------------2----------|----------------------2--------------|-%------------------------2----------|
G#|---------------------5---------4-----|-----------5-----4-------------------|---------------------5---------4-----|
D#|------0----3----0--------------------|-0----0--------------------3----0----|------0----3----0--------------------|

D#|-------------------------------------|-----------------------------------------|
A#|-------------------------------------|-----------------------------------------|
F#|-------------------------------------|-----------------------------------------|
C#|-0-----2----0----2----3----4---------|-----------------------------------------|
G#|--------------------------------0----|-0----0----2----0----2----3----4---------|
D#|-------------------------------------|------------------------------------0----|

D#|-----------------------------------------|-----------------------------------------|
A#|-----------------------------------------|-----------------------------------------|
F#|-----------------------------------------|-------------------------------%---------|
C#|-----------------------------------------|-------------------------------%----0----|
G#|------------------------------------2----|------2----------------------------------|
D#|-0----0----2----0----2----3----4---------|-4---------4----3----2----0--------------|

D#|-----------------------------------------|-----------------------------------------|
A#|-----------------------------------------|-----------------------------------------|
F#|-----------------------------------------|-----------------------------------------|
C#|-0----0----2----0----2----3----4---------|-----------------------------------------|
G#|------------------------------------0----|-0----0----2----0----2----3----4---------|
D#|-----------------------------------------|------------------------------------0----|

D#|-----------------------------------------|-----------------------------------------|
A#|-----------------------------------------|-----------------------------------------|
F#|-----------------------------------------|-------------------------------%---------|
C#|-----------------------------------------|-------------------------------%----0----|
G#|------------------------------------2----|------2----------------------------------|
D#|-0----0----2----0----2----3----4---------|-4---------4----3----2----0--------------|

D#|-----------------------------------------|-----------------------------------------|
A#|-----------------------------------------|-----------------------------------------|
F#|-----------------------------------------|-----------------------------------------|
C#|-0----0----2----0----2----3----4---------|-----------------------------------------|
G#|------------------------------------0----|-0----0----2----0----2----3----4---------|
D#|-----------------------------------------|------------------------------------0----|

D#|-----------------------------------------|-----------------------------------------|
A#|-----------------------------------------|-----------------------------------------|
F#|-----------------------------------------|-------------------------------%---------|
C#|-----------------------------------------|-------------------------------%----0----|
G#|------------------------------------2----|------2----------------------------------|
D#|-0----0----2----0----2----3----4---------|-4---------4----3----2----0--------------|

D#|-----------------------------------------|-----------------------------------------|
A#|-----------------------------------------|-----------------------------------------|
F#|-----------------------------------------|-----------------------------------------|
C#|-0----0----2----0----2----3----4---------|-----------------------------------------|
G#|------------------------------------0----|-0----0----2----0----2----3----4----0----|
D#|-----------------------------------------|-----------------------------------------|

D#|-----------------------------------------|-----------------------------------------|
A#|-----------------------------------------|-----------------------------------------|
F#|-----------------------------------------|-----------------------------------------|
C#|-----------------------------------------|-----------------------------------------|
G#|-2----5----4----3----2----5----4----3----|-2----1----0---------0-------------------|
D#|-----------------------------------------|----------------3---------3----2----1----|

D#|-----------------------------------------|-------------------------------------|
A#|-----------------------------------------|------1-----2---------3----4---------|
F#|-----------%-----------------------------|-%----1-----2----%----3----4---------|
C#|------2----%---------2-------------------|-%----1-----2----%----3----4---------|
G#|--------------------------4----5---------|-------------------------------------|
D#|-0--------------0-------------------0----|--------------------------------0----|

D#|-----------------------------------------|-------------------------------------|
A#|-----------------------------------------|------1-----2---------3----4---------|
F#|-%---------------------------------------|-%----1-----2----%----3----4---------|
C#|-%----2--------------2-------------------|-%----1-----2----%----3----4---------|
G#|--------------------------4----5---------|-------------------------------------|
D#|-----------3----0-------------------0----|--------------------------------0----|

D#|-----------------------------------------|-------------------------------------|
A#|-----------------------------------------|------1-----2---------3----4---------|
F#|-%---------------------------------------|-%----1-----2----%----3----4---------|
C#|-%----2--------------2-------------------|-%----1-----2----%----3----4---------|
G#|--------------------------4----5---------|-------------------------------------|
D#|-----------3----0-------------------0----|--------------------------------0----|

D#|-----------------------------------------|-------------------------------------|
A#|-----------------------------------------|------1-----2---------4--------------|
F#|-%---------------------------------------|-%----1-----2----%----4----%---------|
C#|-%----2--------------2-------------------|-%----1-----2----%----4----%---------|
G#|--------------------------4----5---------|-------------------------------------|
D#|-----------3----0-------------------0----|--------------------------------3----|

D#|-----------------------------------------|-----------------------------------------|
A#|-----------------------------------------|-----------------------------------------|
F#|-----------------------------------------|-----------------------------------------|
C#|-----------------------------------------|-----------------------------------------|
G#|-----------------------------------------|-----------------------------------------|
D#|-3----1----3----1----3----1----2----3----|-3----1----3----1----3----1----2----3----|

D#|-----------------------------------------|-----------------------------------------|
A#|-----------------------------------------|-----------------------------------------|
F#|-----------------------------------------|-----------------------------------------|
C#|-----------------------------------------|-----------------------------------------|
G#|-----------------------------------------|-----------------------------------------|
D#|-3----1----3----1----3----1----2----3----|-3----1----3----1----3----1----2----0----|

D#|-----------------------------------------|-------------------------------------|
A#|-----------------------------------------|------1-----2---------3----4---------|
F#|-%---------------------------------------|-%----1-----2----%----3----4---------|
C#|-%----2--------------2-------------------|-%----1-----2----%----3----4---------|
G#|--------------------------4----5---------|-------------------------------------|
D#|-----------3----0-------------------0----|--------------------------------0----|

D#|-----------------------------------------|-------------------------------------|
A#|-----------------------------------------|------1-----2---------4--------------|
F#|-%---------------------------------------|-%----1-----2----%----4----%---------|
C#|-%----2--------------2-------------------|-%----1-----2----%----4----%---------|
G#|--------------------------4----5---------|-------------------------------------|
D#|-----------3----0-------------------0----|--------------------------------3----|

D#|-----------------------------------------|-----------------------------------------|
A#|-----------------------------------------|-----------------------------------------|
F#|-----------------------------------------|-----------------------------------------|
C#|-----------------------------------------|-----------------------------------------|
G#|-----------------------------------------|-----------------------------------------|
D#|-3----1----3----1----3----1----2----3----|-3----1----3----1----3----1----2----3----|

D#|-----------------------------------------|-----------------------------------------|
A#|-----------------------------------------|-----------------------------------------|
F#|-----------------------------------------|-----------------------------------------|
C#|-----------------------------------------|-----------------------------------------|
G#|-----------------------------------------|-----------------------------------------|
D#|-3----1----3----1----3----1----2----3----|-3----1----3----1----3----1----2----0----|

D#|-----------------------------------------|-------------------------------------|
A#|-----------------------------------------|------1-----2---------3----4---------|
F#|-%---------------------------------------|-%----1-----2----%----3----4---------|
C#|-%----2--------------2-------------------|-%----1-----2----%----3----4---------|
G#|--------------------------4----5---------|-------------------------------------|
D#|-----------3----0-------------------0----|--------------------------------0----|

D#|-----------------------------------------|-------------------------------------|
A#|-----------------------------------------|------1-----2---------4--------------|
F#|-%---------------------------------------|-%----1-----2----%----4----%---------|
C#|-%----2--------------2-------------------|-%----1-----2----%----4----%---------|
G#|--------------------------4----5---------|-------------------------------------|
D#|-----------3----0-------------------0----|--------------------------------3----|

D#|-----------------------------------------|-----------------------------------------|
A#|-----------------------------------------|-----------------------------------------|
F#|-----------------------------------------|-----------------------------------------|
C#|-----------------------------------------|-----------------------------------------|
G#|-----------------------------------------|-----------------------------------------|
D#|-3----1----3----1----3----1----2----3----|-3----1----3----1----3----1----2----3----|

D#|-----------------------------------------|-----------------------------------------|
A#|-----------------------------------------|-----------------------------------------|
F#|-----------------------------------------|-------------------------------%---------|
C#|-----------------------------------------|-------------------------------%---------|
G#|-----------------------------------------|-----------------------------------------|
D#|-3----1----3----1----3----1----2----3----|-3----1----3----1----3----1---------5----|

D#|-----------------------------------------|-------------------------------------|
A#|-----------------------------------------|-------------------------------------|
F#|-----------------------------------------|-------------------------------------|
C#|-----------------------------------------|-------------------------------------|
G#|-----------------------------------------|-------------------------------------|
D#|-5----5----5----5----5----3----0----5----|-5----3----5----3----5----3----5-----|

D#|-----------------------------------------|--------------------|---------|-------------------------------------|
A#|-----------------------------------------|--------------------|---------|-------------------------------------|
F#|-----------------------------------------|-------%-----%------|-%-------|-------------------------------------|
C#|-----------------------------------------|-------%-----%------|-%-------|-0-----2----0----2----3----4---------|
G#|-----------------------------------------|--------------------|---------|--------------------------------0----|
D#|-7----7----7----7----7----7----7----7----|-7------------------|---------|-------------------------------------|

D#|-----------------------------------------|-----------------------------------------|
A#|-----------------------------------------|-----------------------------------------|
F#|-----------------------------------------|-----------------------------------------|
C#|-----------------------------------------|-----------------------------------------|
G#|-0----0----2----0----2----3----4---------|------------------------------------2----|
D#|------------------------------------0----|-0----0----2----0----2----3----4---------|

D#|-----------------------------------------|-----------------------------------------|
A#|-----------------------------------------|-----------------------------------------|
F#|-------------------------------%---------|-----------------------------------------|
C#|-------------------------------%----0----|-0----0----2----0----2----3----4---------|
G#|------2----------------------------------|------------------------------------0----|
D#|-4---------4----3----2----0--------------|-----------------------------------------|

D#|-----------------------------------------|-----------------------------------------|
A#|-----------------------------------------|-----------------------------------------|
F#|-----------------------------------------|-----------------------------------------|
C#|-----------------------------------------|-----------------------------------------|
G#|-0----0----2----0----2----3----4---------|------------------------------------2----|
D#|------------------------------------0----|-0----0----2----0----2----3----4---------|

D#|-----------------------------------------|-----------------------------------------|
A#|-----------------------------------------|-----------------------------------------|
F#|-------------------------------%---------|-----------------------------------------|
C#|-------------------------------%----0----|-0----0----2----0----2----3----4---------|
G#|------2----------------------------------|------------------------------------0----|
D#|-4---------4----3----2----0--------------|-----------------------------------------|

D#|-----------------------------------------|-----------------------------------------|
A#|-----------------------------------------|-----------------------------------------|
F#|-----------------------------------------|-----------------------------------------|
C#|-----------------------------------------|-----------------------------------------|
G#|-0----0----2----0----2----3----4---------|------------------------------------2----|
D#|------------------------------------0----|-0----0----2----0----2----3----4---------|

D#|-----------------------------------------|-----------------------------------------|
A#|-----------------------------------------|-----------------------------------------|
F#|-------------------------------%---------|-----------------------------------------|
C#|-------------------------------%----0----|-0----0----2----0----2----3----4---------|
G#|------2----------------------------------|------------------------------------0----|
D#|-4---------4----3----2----0--------------|-----------------------------------------|

D#|-----------------------------------------|-----------------------------------------|
A#|-----------------------------------------|-----------------------------------------|
F#|-----------------------------------------|-----------------------------------------|
C#|-----------------------------------------|-----------------------------------------|
G#|-0----0----2----0----2----3----4----0----|-2----2----2----2----2----2----2----2----|
D#|-----------------------------------------|-----------------------------------------|

D#|-----------------------------------------|-----------------------------------------|
A#|-----------------------------------------|-----------------------------------------|
F#|-----------------------------------------|-----------------------------------------|
C#|-----------------------------------------|-----------------------------------------|
G#|-2----2----2----2----2----2----2----2----|-2----2----2----2----2----2----2----2----|
D#|-----------------------------------------|-----------------------------------------|

D#|-----------------------------------------|---------|-----------------------------------------|
A#|-----------------------------------------|---------|-----------------------------------------|
F#|-----------------------------------------|---------|-----------------------------------------|
C#|-----------------------------------------|---------|-4----4----2-----------------------------|
G#|-2----2----2----2----2----2----2----2----|-0-------|----------------4----4----2---------2----|
D#|-----------------------------------------|---------|-------------------------------4---------|

D#|---------------|-------------------------|
A#|---------------|-12----12----0-----------|
F#|---------------|-12----12----0-----%-----|
C#|---------------|-12----12----0-----%-----|
G#|---------------|-------------------------|
D#|-0------0------|-------------------------|
Guns N' Roses - Bad Apples (2)
Guns N' Roses - Bad Apples (2).gp3