Guns N' Roses - Chinsese Democracy

Guns N Roses



Title: Chinese Democracy
Album: 
Artist: 
Author: 

Track 1: Guitar1
E|-------------------------------------------|-----------------------------|-------------------------------------------|
B|-------------------------------------------|-----------------------------|-------------------------------------------|
G|---------------%----------------------%----|-0-----0----------0----------|---------------%----------------------%----|
D|-0-----0-------%---------3----3-------%----|-0-----0----------0----6-----|-0-----0-------%---------3----3-------%----|
A|-0-----0----3-------3----3----3----3-------|-------------3---------6-----|-0-----0----3-------3----3----3----3-------|
E|------------3-------3----1----1----3-------|-3-----3-----3----3----4-----|------------3-------3----1----1----3-------|

E|-------------------------------------|-------------------------------------------|
B|-------------------------------------|-------------------------------------------|
G|-0----0----0----0----0----0----------|---------------%----------------------%----|
D|-0----0----0----0----0----0----6-----|-0-----0-------%---------3----3-------%----|
A|-------------------------------6-----|-0-----0----3-------3----3----3----3-------|
E|-3----3----3----3----3----3----4-----|------------3-------3----1----1----3-------|

E|-----------------------------|-------------------------------------------|-------------------------------------|
B|-----------------------------|-------------------------------------------|-------------------------------------|
G|-0-----0----------0----------|---------------%----------------------%----|-0----0----0----0----0----0----------|
D|-0-----0----------0----6-----|-0-----0-------%---------3----3-------%----|-0----0----0----0----0----0----6-----|
A|-------------3---------6-----|-0-----0----3-------3----3----3----3-------|-------------------------------6-----|
E|-3-----3-----3----3----4-----|------------3-------3----1----1----3-------|-3----3----3----3----3----3----4-----|

E|-------------------------------------------|-----------------------------|-------------------------------------------|
B|-------------------------------------------|-----------------------------|-------------------------------------------|
G|---------------%----------------------%----|-0-----0----------0----------|---------------%----------------------%----|
D|-0-----0-------%---------3----3-------%----|-0-----0----------0----6-----|-0-----0-------%---------3----3-------%----|
A|-0-----0----3-------3----3----3----3-------|-------------3---------6-----|-0-----0----3-------3----3----3----3-------|
E|------------3-------3----1----1----3-------|-3-----3-----3----3----4-----|------------3-------3----1----1----3-------|

E|-----------------------------------------|---------|---------|---------|---------|
B|-----------------------------------------|---------|---------|---------|---------|
G|-0----0----0----0----0-------------------|-%-------|-%-------|-%-------|-%-------|
D|-0----0----0----0----0----3----3----3----|-%-------|-%-------|-%-------|-%-------|
A|--------------------------3----3----3----|---------|---------|---------|---------|
E|-3----3----3----3----3----1----1----1----|---------|---------|---------|---------|

E|---------|---------|---------|---------|---------|---------|---------|---------|---------|
B|---------|---------|---------|---------|---------|---------|---------|---------|---------|
G|-%-------|-%-------|-%-------|-%-------|-%-------|-%-------|-%-------|-%-------|-%-------|
D|-%-------|-%-------|-%-------|-%-------|-%-------|-%-------|-%-------|-%-------|-%-------|
A|---------|---------|---------|---------|---------|---------|---------|---------|---------|
E|---------|---------|---------|---------|---------|---------|---------|---------|---------|

E|---------|---------|---------|-------------------------------------------|-----------------------------|
B|---------|---------|---------|-------------------------------------------|-----------------------------|
G|-%-------|-%-------|-%-------|---------------%----------------------%----|-0-----0----------0----------|
D|-%-------|-%-------|-%-------|-0-----0-------%---------3----3-------%----|-0-----0----------0----6-----|
A|---------|---------|---------|-0-----0----3-------3----3----3----3-------|-------------3---------6-----|
E|---------|---------|---------|------------3-------3----1----1----3-------|-3-----3-----3----3----4-----|

E|-------------------------------------------|-------------------------------------|
B|-------------------------------------------|-------------------------------------|
G|---------------%----------------------%----|-0----0----0----0----0----0----------|
D|-0-----0-------%---------3----3-------%----|-0----0----0----0----0----0----6-----|
A|-0-----0----3-------3----3----3----3-------|-------------------------------6-----|
E|------------3-------3----1----1----3-------|-3----3----3----3----3----3----4-----|

E|-------------------------------------------|-----------------------------|---------------------------------|
B|-------------------------------------------|-----------------------------|---------------------------------|
G|---------------%----------------------%----|-0-----0----------0----------|-2-----2----2----3-----3----3----|
D|-0-----0-------%---------3----3-------%----|-0-----0----------0----6-----|-2-----2----2----3-----3----3----|
A|-0-----0----3-------3----3----3----3-------|-------------3---------6-----|-0-----0----0----1-----1----1----|
E|------------3-------3----1----1----3-------|-3-----3-----3----3----4-----|---------------------------------|

E|---------------------------------|-0----0----0----0----0----0----0----0----|-1----1-----------------|
B|------------1-----1----1----1----|-0----0----0----0----0----0----0----0----|-1----1-----1-----------|
G|------------0-----0----0----0----|-----------------------------------------|------------0------%----|
D|-3-----3-------------------------|-2----2----2----2----2----2----2----2----|-3----3------------%----|
A|-3-----3----3-----3----3----3----|-----------------------------------------|------------3-----------|
E|-1-----1-------------------------|-----------------------------------------|------------------------|

E|---------|---------|---------|---------|---------|---------|---------|---------|-------------------------------------------|
B|---------|---------|---------|---------|---------|---------|---------|---------|-------------------------------------------|
G|-%-------|-%-------|-%-------|-%-------|-%-------|-%-------|-%-------|-%-------|---------------%----------------------%----|
D|-%-------|-%-------|-%-------|-%-------|-%-------|-%-------|-%-------|-%-------|-0-----0-------%----0----3----3-------%----|
A|---------|---------|---------|---------|---------|---------|---------|---------|-0-----0----3-------0----3----3----3-------|
E|---------|---------|---------|---------|---------|---------|---------|---------|------------3------------1----1----3-------|

E|-----------------------------|-------------------------------------------|-------------------------------------|
B|-----------------------------|-------------------------------------------|-------------------------------------|
G|-0-----0----------0----------|---------------%----------------------%----|-0----0----0----0----0----0----------|
D|-0-----0----------0----6-----|-0-----0-------%----0----3----3-------%----|-0----0----0----0----0----0----6-----|
A|-------------3---------6-----|-0-----0----3-------0----3----3----3-------|-------------------------------6-----|
E|-3-----3-----3----3----4-----|------------3------------1----1----3-------|-3----3----3----3----3----3----4-----|

E|-------------------------------------------|-----------------------------|---------------------------------|
B|-------------------------------------------|-----------------------------|---------------------------------|
G|---------------%----------------------%----|-0-----0----------0----------|-2-----2----2----3-----3----3----|
D|-0-----0-------%----0----3----3-------%----|-0-----0----------0----6-----|-2-----2----2----3-----3----3----|
A|-0-----0----3-------0----3----3----3-------|-------------3---------6-----|-0-----0----0----1-----1----1----|
E|------------3------------1----1----3-------|-3-----3-----3----3----4-----|---------------------------------|

E|---------------------------------|-0----0----0----0----0----0----0----0----|-1----1-----------------|
B|------------1-----1----1----1----|-0----0----0----0----0----0----0----0----|-1----1-----1-----------|
G|------------0-----0----0----0----|-----------------------------------------|------------0------%----|
D|-3-----3-------------------------|-2----2----2----2----2----2----2----2----|-3----3------------%----|
A|-3-----3----3-----3----3----3----|-----------------------------------------|------------3-----------|
E|-1-----1-------------------------|-----------------------------------------|------------------------|

E|---------------------------------|---------------------------------|-0----0----0----0----0----0----0----0----|
B|---------------------------------|------------1-----1----1----1----|-0----0----0----0----0----0----0----0----|
G|-2-----2----2----3-----3----3----|------------0-----0----0----0----|-----------------------------------------|
D|-2-----2----2----3-----3----3----|-3-----3-------------------------|-2----2----2----2----2----2----2----2----|
A|-0-----0----0----1-----1----1----|-3-----3----3-----3----3----3----|-----------------------------------------|
E|---------------------------------|-1-----1-------------------------|-----------------------------------------|

E|-1----1-----------------|-------------------------------------------|-----------------------------|
B|-1----1-----1-----------|-------------------------------------------|-----------------------------|
G|------------0------%----|---------------%----------------------%----|-0-----0----------0----------|
D|-3----3------------%----|-0-----0-------%---------3----3-------%----|-0-----0----------0----6-----|
A|------------3-----------|-0-----0----3-------3----3----3----3-------|-------------3---------6-----|
E|------------------------|------------3-------3----1----1----3-------|-3-----3-----3----3----4-----|

E|-------------------------------------------|-------------------------------------|
B|-------------------------------------------|-------------------------------------|
G|---------------%----------------------%----|-0----0----0----0----0----0----------|
D|-0-----0-------%---------3----3-------%----|-0----0----0----0----0----0----6-----|
A|-0-----0----3-------3----3----3----3-------|-------------------------------6-----|
E|------------3-------3----1----1----3-------|-3----3----3----3----3----3----4-----|

E|-------------------------------------------|-----------------------------|-------------------------------------------|
B|-------------------------------------------|-----------------------------|-------------------------------------------|
G|---------------%----------------------%----|-0-----0----------0----------|---------------%----------------------%----|
D|-0-----0-------%---------3----3-------%----|-0-----0----------0----6-----|-0-----0-------%---------3----3-------%----|
A|-0-----0----3-------3----3----3----3-------|-------------3---------6-----|-0-----0----3-------3----3----3----3-------|
E|------------3-------3----1----1----3-------|-3-----3-----3----3----4-----|------------3-------3----1----1----3-------|

E|-------------------------------------|-------------------------------------------|
B|-------------------------------------|-------------------------------------------|
G|-0----0----0----0----0----0----------|---------------%----------------------%----|
D|-0----0----0----0----0----0----6-----|-0-----0-------%---------3----3-------%----|
A|-------------------------------6-----|-0-----0----3-------3----3----3----3-------|
E|-3----3----3----3----3----3----4-----|------------3-------3----1----1----3-------|

E|-----------------------------|-------------------------------------------|-------------------------------------|
B|-----------------------------|-------------------------------------------|-------------------------------------|
G|-0-----0----------0----------|---------------%----------------------%----|-0----0----0----0----0----0----------|
D|-0-----0----------0----6-----|-0-----0-------%---------3----3-------%----|-0----0----0----0----0----0----6-----|
A|-------------3---------6-----|-0-----0----3-------3----3----3----3-------|-------------------------------6-----|
E|-3-----3-----3----3----4-----|------------3-------3----1----1----3-------|-3----3----3----3----3----3----4-----|

E|-------------------------------------------|-----------------------------|-------------------------------------------|
B|-------------------------------------------|-----------------------------|-------------------------------------------|
G|---------------%----------------------%----|-0-----0----------0----------|---------------%----------------------%----|
D|-0-----0-------%---------3----3-------%----|-0-----0----------0----6-----|-0-----0-------%---------3----3-------%----|
A|-0-----0----3-------3----3----3----3-------|-------------3---------6-----|-0-----0----3-------3----3----3----3-------|
E|------------3-------3----1----1----3-------|-3-----3-----3----3----4-----|------------3-------3----1----1----3-------|

E|-----------------------------------------|-------------------------------------------|
B|-----------------------------------------|-------------------------------------------|
G|-0----0----0----0----0-------------------|---------------%----------------------%----|
D|-0----0----0----0----0----3----3----3----|-0-----0-------%---------3----3-------%----|
A|--------------------------3----3----3----|-0-----0----3-------3----3----3----3-------|
E|-3----3----3----3----3----1----1----1----|------------3-------3----1----1----3-------|

E|-----------------------------|-------------------------------------------|-------------------------------------|
B|-----------------------------|-------------------------------------------|-------------------------------------|
G|-0-----0----------0----------|---------------%----------------------%----|-0----0----0----0----0----0----------|
D|-0-----0----------0----6-----|-0-----0-------%---------3----3-------%----|-0----0----0----0----0----0----6-----|
A|-------------3---------6-----|-0-----0----3-------3----3----3----3-------|-------------------------------6-----|
E|-3-----3-----3----3----4-----|------------3-------3----1----1----3-------|-3----3----3----3----3----3----4-----|

E|-------------------------------------------|-----------------------------|-------------------------------------------|
B|-------------------------------------------|-----------------------------|-------------------------------------------|
G|---------------%----------------------%----|-0-----0----------0----------|---------------%----------------------%----|
D|-0-----0-------%---------3----3-------%----|-0-----0----------0----6-----|-0-----0-------%---------3----3-------%----|
A|-0-----0----3-------3----3----3----3-------|-------------3---------6-----|-0-----0----3-------3----3----3----3-------|
E|------------3-------3----1----1----3-------|-3-----3-----3----3----4-----|------------3-------3----1----1----3-------|

E|-------------------------------------|---------------------------------|---------------------------------|
B|-------------------------------------|---------------------------------|------------1-----1----1----1----|
G|-0----0----0----0----0----0----------|-2-----2----2----3-----3----3----|------------0-----0----0----0----|
D|-0----0----0----0----0----0----6-----|-2-----2----2----3-----3----3----|-3-----3-------------------------|
A|-------------------------------6-----|-0-----0----0----1-----1----1----|-3-----3----3-----3----3----3----|
E|-3----3----3----3----3----3----4-----|---------------------------------|-1-----1-------------------------|

E|-0----0----0----0----0----0----0----0----|-1----1-----------------|--------------------|
B|-0----0----0----0----0----0----0----0----|-1----1-----1------1----|-1------------------|
G|-----------------------------------------|------------0------0----|-0------%------%----|
D|-2----2----2----2----2----2----2----2----|-3----3-----------------|--------%------%----|
A|-----------------------------------------|------------3------3----|-3------------------|
E|-----------------------------------------|------------------------|--------------------|
Guns N' Roses - Chinsese Democracy
Guns N' Roses - Chinsese Democracy.gp3