Guns N' Roses - Coma

Guns N' Roses - Coma

Guns N Roses



Title: Coma
Album: 
Artist: 
Author: Guns N'Roses

Track 1: Guitar 1
D#|---------|---------|---------|---------|---------|---------------|---------|---------|
A#|---------|---------|---------|---------|---------|--------5------|-5-------|-5-------|
F#|-%-------|-%-------|-%-------|-%-------|-%-------|-%------2------|-2-------|-2-------|
C#|-%-------|-%-------|-%-------|-%-------|-%-------|-%------2------|-2-------|-2-------|
G#|---------|---------|---------|---------|---------|--------0------|-0-------|-0-------|
D#|---------|---------|---------|---------|---------|---------------|---------|---------|

D#|---------|---------|---------|---------|---------|---------|---------|---------|
A#|-4-------|-4-------|-2-------|-2-------|-2-------|-2-------|-2-------|---------|
F#|-2-------|-2-------|-2-------|-2-------|-2-------|-2-------|-2-------|---------|
C#|-2-------|-2-------|-2-------|-2-------|-2-------|-2-------|-2-------|---------|
G#|-0-------|-0-------|-0-------|-0-------|-0-------|-0-------|-0-------|-3-------|
D#|---------|---------|---------|---------|---------|---------|---------|---------|

D#|---------|-----------------------------|---------------------------------|-----------------------------|
A#|---------|-----------------------------|---------------------------------|-----------------------------|
F#|---------|-----------------------------|---------------------------------|-----------------------------|
C#|---------|-6-----------5----------6----|-6----6--------------5-----------|-6-----------5---------------|
G#|-3-------|-4-----0-----3-----0----4----|-4----4----0----0----3-----0-----|-4-----0-----3-----0----4----|
D#|---------|-----------------------------|---------------------------------|-----------------------------|

D#|---------------------------------|-----------------------------|-----------------------------------------|
A#|---------------------------------|-----------------------------|-----------------------------------------|
F#|---------------------------------|-----------------------------|-----------------------------------------|
C#|---------------------5-----------|-6-----------5---------------|---------------------5----5----4---------|
G#|-4----7----4----0----3-----0-----|-4-----0-----3-----0----4----|-4----7----4----0----3----3----2----0----|
D#|---------------------------------|-----------------------------|-----------------------------------------|

D#|-----------------------------|-----------------------------------------|------------------------|
A#|-----------------------------|-----------------------------------------|------------------------|
F#|-----------------------------|-----------------------------------------|-2----2----%-----%------|
C#|-6-----------5----------6----|-6----7----8----9----10---11---12---13---|-2----2----%-----%------|
G#|-4-----0-----3-----0----4----|-4----5----6----7----8----9----10---11---|-0----0-----------------|
D#|-----------------------------|-----------------------------------------|------------------------|

D#|---------|------------------------|---------|------------------------|---------|
A#|---------|------------------------|---------|------------------------|---------|
F#|-%-------|-2----2----%-----%------|-%-------|-----------%-----%------|-%-------|
C#|-%-------|-2----2----%-----%------|-%-------|-5----5----%-----%------|-%-------|
G#|---------|-0----0-----------------|---------|-5----5-----------------|---------|
D#|---------|------------------------|---------|-3----3-----------------|---------|

D#|------------------------|---------|------------------------|---------|------------------------|
A#|------------------------|---------|------------------------|---------|------------------------|
F#|-----------%-----%------|-%-------|-----------%-----%------|-%-------|-----------%-----%------|
C#|-5----5----%-----%------|-%-------|-3----3----%-----%------|-%-------|-3----3----%-----%------|
G#|-5----5-----------------|---------|-3----3-----------------|---------|-3----3-----------------|
D#|-3----3-----------------|---------|-1----1-----------------|---------|-1----1-----------------|

D#|---------------------------|---------------------------------|-----------------------------------------|
A#|---------------------------|---------------------------------|-----------------------------------------|
F#|-%------%-----%----X---X---|-13----13----13---13---%----8----|-8----8----8---------8----8----%----12---|
C#|-%------%-----%----X---X---|-13----13----13---13---%----8----|-8----8----8---------8----8----%----12---|
G#|-------------------X---X---|-11----11----11---11--------6----|-6----6----6----X----6----6---------10---|
D#|---------------------------|---------------------------------|-----------------------------------------|

D#|-------------------------------------|-------------------------|------------------------|
A#|--------------------------------7----|-7-----7-----7----7------|-6----6-----------------|
F#|-12---12---12----12---12---%----7----|-7-----7-----7----7------|-7----7----%-----%------|
C#|-12---12---12----12---12---%----7----|-7-----7-----7----7------|-7----7----%-----%------|
G#|-10---10---10----10---10--------5----|-5-----5-----5----5------|-5----5-----------------|
D#|-------------------------------------|-------------------------|------------------------|

D#|---------|------------------------|---------|------------------------|---------|
A#|---------|-5----5-----------------|---------|-4----4-----------------|---------|
F#|-%-------|-5----5----%-----%------|-%-------|-5----5----%-----%------|-%-------|
C#|-%-------|-5----5----%-----%------|-%-------|-5----5----%-----%------|-%-------|
G#|---------|-3----3-----------------|---------|-3----3-----------------|---------|
D#|---------|------------------------|---------|------------------------|---------|

D#|----------------------------------------|-------------------------------------|--------------------------------------------|
A#|----------------------------------------|-------------------------------------|--------------------------------------------|
F#|-8-----8------------8----8----%----3----|-3-----3---------3----3----%----7----|-7----7----7------------7----7----%----2----|
C#|-8-----8----X---X---8----8----%----3----|-3-----3----X----3----3----%----7----|-7----7----7----X---X---7----7----%----2----|
G#|-6-----6----X---X---6----6---------1----|-1-----1----X----1----1---------5----|-5----5----5----X---X---5----5---------0----|
D#|----------------------------------------|-------------------------------------|--------------------------------------------|

D#|-------------------------------------------|------------------------|---------|-3----3-----------------|
A#|-------------------------------------------|-1----1-----------------|---------|-3----3-----------------|
F#|-2-----2------------2----2----2------------|-2----2----%-----%------|-%-------|-4----4----%-----%------|
C#|-2-----2----X---X---2----2----2----X---X---|-2----2----%-----%------|-%-------|-5----5----%-----%------|
G#|-0-----0----X---X---0----0----0----X---X---|-0----0-----------------|---------|-5----5-----------------|
D#|-------------------------------------------|------------------------|---------|-3----3-----------------|

D#|---------|-3----3-----------------|---------|-------------------------------------|
A#|---------|-3----3-----------------|---------|-------------------------------------|
F#|-%-------|-3----3----%-----%------|-%-------|-4-----4---------4----4----%---------|
C#|-%-------|-5----5----%-----%------|-%-------|-4-----4----X----4----4----%----4----|
G#|---------|-5----5-----------------|---------|-2-----2----X----2----2---------4----|
D#|---------|-3----3-----------------|---------|--------------------------------2----|

D#|---------------------------------|---------------------------------|---------------------------------|
A#|---------------------------------|---------------------------------|---------------------------------|
F#|---------------------------------|-4-----4-----4----5----6----7----|-7-----7-----7--------------2----|
C#|-4-----4-----4----4----4----X----|-4-----4-----4----5----6----7----|-7-----7-----7--------------2----|
G#|-4-----4-----4----4----4----X----|-2-----2-----2----3----4----5----|-5-----5-----5---------4----0----|
D#|-2-----2-----2----2----2----X----|---------------------------------|------------------0--------------|

D#|---------------------------------|---------------------------------|---------------------------------|
A#|---------------------------------|---------------------------------|---------------------------------|
F#|-2-----2-----2-------------------|---------------------------------|----------------------------7----|
C#|-2-----2-----2--------------2----|-2-----2----X----2----------5----|-5-----5-----5--------------7----|
G#|-0-----0-----0--------------2----|-2-----2----X----2----------5----|-5-----5-----5--------------5----|
D#|------------------3----2----0----|-0-----0----X----0-----2----3----|-3-----3-----3----2----0---------|

D#|----------------------------------------|-----------------------------------------|
A#|----------------------------------------|-----------------------------------------|
F#|-7-----7------------7----6---------5----|-5----4----5----4----5----4----5----4----|
C#|-7-----7----X---X---7----6----X----5----|-5----4----5----4----5----4----5----4----|
G#|-5-----5----X---X---5----4----X----3----|-3----2----3----2----3----2----3----2----|
D#|----------------------------------------|-----------------------------------------|

D#|-----------------------------------------|-----------------------------|---------------------------------|
A#|-----------------------------------------|-----------------------------|---------------------------------|
F#|-5----4----5----4----5----5--------------|-----------------------------|---------------------------------|
C#|-5----4----5----4----5----5--------------|-6-----------5----------6----|-6----6--------------5-----------|
G#|-3----2----3----2----3----3----0----2----|-4-----0-----3-----0----4----|-4----4----0----0----3-----0-----|
D#|-----------------------------------------|-----------------------------|---------------------------------|

D#|-----------------------------|---------------------------------|-----------------------------|
A#|-----------------------------|---------------------------------|-----------------------------|
F#|-----------------------------|---------------------------------|-----------------------------|
C#|-6-----------5---------------|---------------------5-----------|-6-----------5---------------|
G#|-4-----0-----3-----0----4----|-4----7----4----0----3-----0-----|-4-----0-----3-----0----4----|
D#|-----------------------------|---------------------------------|-----------------------------|

D#|-----------------------------------------|-----------------------------|-----------------------------------------|
A#|-----------------------------------------|-----------------------------|-----------------------------------------|
F#|-----------------------------------------|-----------------------------|-----------------------------------------|
C#|---------------------5----5----4---------|-6-----------5---------------|-----------------------------------------|
G#|-4----7----4----0----3----3----2----0----|-4-----0-----3-----0----4----|-4----7----4----0----3----3----2----1----|
D#|-----------------------------------------|-----------------------------|-----------------------------------------|

D#|------------------------|---------|---------------|-------------------|---------|
A#|------------------------|---------|---------------|--------------7----|-7-------|
F#|-----------%-----%------|-%-------|-%-------------|---------%----7----|-7-------|
C#|-2----2----%-----%------|-%-------|-%-------------|---------%---------|---------|
G#|-0----0-----------------|---------|---------------|-------------------|---------|
D#|------------------------|---------|-------5-------|-5-----------------|---------|

D#|-------------------|---------|-------------------|---------|--------11---11----------|
A#|-7------------8----|-8-------|-8------------11---|-11------|-11----------------------|
F#|-7-------%----7----|-7-------|-7-------%----10---|-10------|-10----------------------|
C#|---------%---------|---------|---------%---------|---------|--------------------3----|
G#|-------------------|---------|-------------------|---------|--------------------3----|
D#|-------------------|---------|-------------------|---------|--------------------1----|

D#|-----------------------------------------------------|---------------------------------|
A#|-----------------------------------------------------|---------------------------------|
F#|---------------%-------%------------%-------%--------|----------------------------5----|
C#|-3----3--------%-------%---3--------%-------%---3----|-3-----3--------------------5----|
G#|-3----3--------------------3--------------------3----|-3-----3----------3----5----3----|
D#|-1----1----1-------1-------1----1-------1-------1----|-1-----1-----5-------------------|

D#|-------------------------------------|----------------------------------------|-----------------------------------------|
A#|-------------------------------------|----------------------------------------|-----------------------------------------|
F#|-5-----5----X----5----5----X----5----|-5-----5------------5----5----%----4----|-4----3----4----3----4----3----4----3----|
C#|-5-----5----X----5----5----X----5----|-5-----5----X---X---5----5----%----4----|-4----3----4----3----4----3----4----3----|
G#|-3-----3----X----3----3----X----3----|-3-----3----X---X---3----3---------2----|-2----1----2----1----2----1----2----1----|
D#|-------------------------------------|----------------------------------------|-----------------------------------------|

D#|-----------------------------------------|-----------------------------|---------------------------------|
A#|-----------------------------------------|-----------------------------|---------------------------------|
F#|-4----3----4----3----4----4--------------|-----------------------------|---------------------------------|
C#|-4----3----4----3----4----4--------------|-4-----------3----------4----|-4----4--------------3-----------|
G#|-2----1----2----1----2----2--------------|-2-----------1----------2----|-2----2--------------1-----------|
D#|-------------------------------3----0----|-------0-----------0---------|-----------3----0----------0-----|

D#|-----------------------------|---------------------------------|-----------------------------|
A#|-----------------------------|---------------------------------|-----------------------------|
F#|-----------------------------|---------------------------------|-----------------------------|
C#|-4-----------3----------4----|-4----4--------------3-----------|-4-----------3----------4----|
G#|-2-----------1----------2----|-2----2--------------1-----------|-2-----------1----------2----|
D#|-------0-----------0---------|-----------3----0----------0-----|-------0-----------0---------|

D#|---------------------------------|-----------------------------|---------------------------------|
A#|---------------------------------|-----------------------------|---------------------------------|
F#|---------------------------------|-----------------------------|---------------------------------|
C#|-4----4--------------3-----------|-4-----------3----------4----|-4----4--------------3-----------|
G#|-2----2--------------1-----------|-2-----------1----------2----|-2----2--------------1-----------|
D#|-----------3----0----------0-----|-------0-----------0---------|-----------3----0----------0-----|

D#|-----------------------------|---------------------------------|-----------------------------|
A#|-----------------------------|---------------------------------|-----------------------------|
F#|-----------------------------|---------------------------------|-----------------------------|
C#|-6-----------5----------6----|-6----6--------------5-----------|-6-----------5---------------|
G#|-4-----0-----3-----0----4----|-4----4----0----0----3-----0-----|-4-----0-----3-----0----4----|
D#|-----------------------------|---------------------------------|-----------------------------|

D#|---------------------------------|-----------------------------|-----------------------------------------|
A#|---------------------------------|-----------------------------|-----------------------------------------|
F#|---------------------------------|-----------------------------|-----------------------------------------|
C#|---------------------5-----------|-6-----------5---------------|---------------------5----5----4---------|
G#|-4----7----4----0----3-----0-----|-4-----0-----3-----0----4----|-4----7----4----0----3----3----2----0----|
D#|---------------------------------|-----------------------------|-----------------------------------------|

D#|-----------------------------|-----------------------------------------|--------------------|
A#|-----------------------------|-----------------------------------------|------3------3------|
F#|-----------------------------|-----------------------------------------|------2------2------|
C#|-6-----------5----------6----|-6----5----4----3----2----5----4----3----|------0------0------|
G#|-4-----0-----3-----0----4----|-4----3----2----1----0----3----2----1----|-0------------------|
D#|-----------------------------|-----------------------------------------|--------------------|

D#|---------|------5------5------|-5-----------------|----------------------------------------|
A#|-3-------|------5------5------|-5-----------------|----------------------------------------|
F#|-2-------|------2------2------|-2-------X----4----|-4-----4----X---X---4----4----%----4----|
C#|-0-------|------2------2------|-2-------X----4----|-4-----4----X---X---4----4----%----4----|
G#|---------|-0------------------|---------X----2----|-2-----2----X---X---2----2---------2----|
D#|---------|--------------------|-------------------|----------------------------------------|

D#|--------------------------------------------|----------------------------------------|
A#|--------------------------------------------|----------------------------------------|
F#|-4----4----4----X---X---4----4----%---------|------------------------------%---------|
C#|-4----4----4----X---X---4----4----%----4----|-4-----4----X---X---4----4----%----4----|
G#|-2----2----2----X---X---2----2---------4----|-4-----4----X---X---4----4---------4----|
D#|---------------------------------------2----|-2-----2----X---X---2----2---------2----|

D#|-------------------------------------|--------------------2----|-2-------2----0----|
A#|--------------------------------3----|-3-----3-----3------3----|-3-------3----0----|
F#|--------------------------------0----|-0-----0-----0------2----|-2-------2---------|
C#|-4-----4----X----4---------4----0----|-0-----0-----0------0----|-0-------0---------|
G#|-4-----4----X---------4---------X----|-0-----X-----0------0----|-0-------0---------|
D#|-2-----2----X-------------------3----|-3-----3-----3-----------|-------------------|

D#|-0-------|-0-------0----0----|-0-------|-0-------|-5-------|-5-------|-5-------|
A#|-0-------|-0-------0----0----|-0-------|-0-------|-5-------|-5-------|-5-------|
F#|---------|-------------------|---------|---------|-2-------|-2-------|-2-------|
C#|---------|-------------------|---------|---------|-2-------|-2-------|-2-------|
G#|---------|-------------------|---------|---------|---------|---------|---------|
D#|---------|-------------------|---------|---------|---------|---------|---------|

D#|-5-------|---------|---------|---------|---------|---------|---------|---------|
A#|-5-------|---------|---------|---------|---------|---------|---------|---------|
F#|-2-------|-%-------|-%-------|-%-------|-%-------|-%-------|-%-------|-%-------|
C#|-2-------|-%-------|-%-------|-%-------|-%-------|-%-------|-%-------|-%-------|
G#|---------|---------|---------|---------|---------|---------|---------|---------|
D#|---------|---------|---------|---------|---------|---------|---------|---------|

D#|---------|---------|---------|---------|---------|---------|---------|---------|
A#|---------|---------|---------|---------|---------|---------|---------|---------|
F#|-%-------|-%-------|-%-------|-%-------|-%-------|-%-------|-%-------|-%-------|
C#|-%-------|-%-------|-%-------|-%-------|-%-------|-%-------|-%-------|-%-------|
G#|---------|---------|---------|---------|---------|---------|---------|---------|
D#|---------|---------|---------|---------|---------|---------|---------|---------|

D#|---------|---------|---------|---------|---------|---------|---------|---------|
A#|---------|---------|---------|---------|---------|---------|---------|---------|
F#|-%-------|-%-------|-%-------|-%-------|-%-------|-%-------|-%-------|-%-------|
C#|-%-------|-%-------|-%-------|-%-------|-%-------|-%-------|-%-------|-%-------|
G#|---------|---------|---------|---------|---------|---------|---------|---------|
D#|---------|---------|---------|---------|---------|---------|---------|---------|

D#|---------|---------|---------|---------|---------|---------|---------|---------|
A#|---------|---------|---------|---------|---------|---------|---------|---------|
F#|-%-------|-%-------|-%-------|-%-------|-%-------|-%-------|-%-------|-%-------|
C#|-%-------|-%-------|-%-------|-%-------|-%-------|-%-------|-%-------|-%-------|
G#|---------|---------|---------|---------|---------|---------|---------|---------|
D#|---------|---------|---------|---------|---------|---------|---------|---------|

D#|---------|---------|---------|---------|---------|---------|---------|---------|
A#|---------|---------|---------|---------|---------|---------|---------|---------|
F#|-%-------|-%-------|-%-------|-%-------|-%-------|-%-------|-%-------|-%-------|
C#|-%-------|-%-------|-%-------|-%-------|-%-------|-%-------|-%-------|-%-------|
G#|---------|---------|---------|---------|---------|---------|---------|---------|
D#|---------|---------|---------|---------|---------|---------|---------|---------|

D#|---------|---------|---------|---------|---------|---------|---------|---------|
A#|---------|---------|---------|---------|---------|---------|-5-------|-5-------|
F#|-%-------|---------|---------|---------|---------|---------|-2-------|-2-------|
C#|-%-------|---------|---------|---------|---------|---------|-2-------|-2-------|
G#|---------|-0-------|-0-------|-0-------|-0-------|-0-------|-0-------|-0-------|
D#|---------|---------|---------|---------|---------|---------|---------|---------|

D#|---------|---------|---------|---------|---------------------------------------------------------------------------------------|
A#|-4-------|-4-------|-2-------|-2-------|-1--2--1---2---1---2---1---2---1---2---1---2---1---2---1---2---1---2---1---2---1---2---|
F#|-2-------|-2-------|-2-------|-2-------|-2-------------------------------------------------------------------------------------|
C#|-2-------|-2-------|-2-------|-2-------|-2-------------------------------------------------------------------------------------|
G#|-0-------|-0-------|-0-------|-0-------|-0-------------------------------------------------------------------------------------|
D#|---------|---------|---------|---------|---------------------------------------------------------------------------------------|

D#|-----------------------------------------------------------------------|-----------------------------------------------------------------|
A#|-1---2---1---2---1---2---1---2---1---2---1---2---1---2---1---2---------|-----------------------------------------------------------------|
F#|-----------------------------------------------------------------------|-----%-------%-------%-------%-------%-------%-------%-------%---|
C#|-----------------------------------------------------------------------|-----%-------%-------%-------%-------%-------%-------%-------%---|
G#|-----------------------------------------------------------------12----|-0-------0-------0-------0-------0-------0-------0-------0-------|
D#|-----------------------------------------------------------------------|-----------------------------------------------------------------|

D#|-----------------------------------------------------------------|-----------------------------------------|
A#|-----------------------------------------------------------------|-----------------------------------------|
F#|-----%-------%-------%-------%-------%-------%-------%-------%---|-2----2----2----2----2----2----2----2----|
C#|-----%-------%-------%-------%-------%-------%-------%-------%---|-2----2----2----2----2----2----2----2----|
G#|-0-------0-------0-------0-------0-------0-------0-------0-------|-0----0----0----0----0----0----0----0----|
D#|-----------------------------------------------------------------|-----------------------------------------|

D#|-----------------------------------------|-----------------------------|---------------------------------|
A#|-----------------------------------------|-----------------------------|---------------------------------|
F#|-2----2----2----2----2----2----2----2----|-----------------------------|---------------------------------|
C#|-2----2----2----2----2----2----2----2----|-6-----------5----------6----|-6----6--------------5-----------|
G#|-0----0----0----0----0----0----0----0----|-4-----0-----3-----0----4----|-4----4----0----0----3-----0-----|
D#|-----------------------------------------|-----------------------------|---------------------------------|

D#|-----------------------------|---------------------------------|-----------------------------|
A#|-----------------------------|---------------------------------|-----------------------------|
F#|-----------------------------|---------------------------------|-----------------------------|
C#|-6-----------5---------------|---------------------5-----------|-6-----------5---------------|
G#|-4-----0-----3-----0----4----|-4----7----4----0----3-----0-----|-4-----0-----3-----0----4----|
D#|-----------------------------|---------------------------------|-----------------------------|

D#|-----------------------------------------|-----------------------------|-----------------------------------------|
A#|-----------------------------------------|-----------------------------|-----------------------------------------|
F#|-----------------------------------------|-----------------------------|-----------------------------------------|
C#|---------------------5----5----4---------|-6-----------5---------------|-----------------------------------------|
G#|-4----7----4----0----3----3----2----0----|-4-----0-----3-----0----4----|-4----3----2----1----0-------------------|
D#|-----------------------------------------|-----------------------------|--------------------------0----1----2----|

D#|---------|---------|---------|-------------------|--------------------------------------------------------|
A#|---------|---------|---------|-------------------|--------------------------------------------------------|
F#|---------|---------|---------|-------------------|---------------%-------%-------%-------%------------%---|
C#|-5-------|-5-------|-5-------|-5-------5----2----|-2----2--------%-------%-------%-------%---2--------%---|
G#|-5-------|-5-------|-5-------|-5-------5----0----|-0----0----0-------0-------0-------0-------0----0-------|
D#|-3-------|-3-------|-3-------|-3-------3---------|--------------------------------------------------------|

D#|-----------------------------------------------------------|--------------------------------------------------------|
A#|-----------------------------------------------------------|--------------------------------------------------------|
F#|-----%-------%------------%-------%-------%-------%--------|------2--------%-------%-------%-------%------------%---|
C#|-----%-------%---2--------%-------%-------%-------%---2----|-2-------------%-------%-------%-------%---2--------%---|
G#|-0-------0-------0----0-------0-------0-------0-------0----|-0---------0-------0-------0-------0-------0----0-------|
D#|-----------------------------------------------------------|--------------------------------------------------------|

D#|-----------------------------------------------------------|--------------------------------------------------------|
A#|-----------------------------------------------------------|--------------------------------------------------------|
F#|-----%-------%------------%-------%-------%-------%--------|---------------%-------%-------%-------%------------%---|
C#|-----%-------%---2--------%-------%-------%-------%--------|---------------%-------%-------%-------%------------%---|
G#|-0-------0-------0----0-------0-------0-------0-------5----|-5----5------------------------------------5------------|
D#|------------------------------------------------------3----|-3----3----3-------3-------3-------3-------3----3-------|

D#|-----------------------------------------------------------|--------------------------------------------------------|
A#|-----------------------------------------------------------|--------------------------------------------------------|
F#|-----%-------%------------%-------%-------%-------%--------|---------------%-------%-------%-------%------------%---|
C#|-----%-------%------------%-------%-------%-------%--------|---------------%-------%-------%-------%------------%---|
G#|-----------------5------------------------------------5----|-5----5------------------------------------5------------|
D#|-3-------3-------3----3-------3-------3-------3-------3----|-3----3----3-------3-------3-------3-------3----3-------|

D#|-----------------------------------------------------------|--------------------------------------------------------|
A#|-----------------------------------------------------------|--------------------------------------------------------|
F#|-----%-------%------------%-------%-------%-------%--------|---------------%-------%-------%-------%------------%---|
C#|-----%-------%------------%-------%-------%-------%--------|---------------%-------%-------%-------%------------%---|
G#|-----------------5------------------------------------3----|-3----3------------------------------------3------------|
D#|-3-------3-------3----3-------3-------3-------3-------1----|-1----1----1-------1-------1-------1-------1----1-------|

D#|-----------------------------------------------------------|--------------------------------------------------------|
A#|-----------------------------------------------------------|--------------------------------------------------------|
F#|-----%-------%------------%-------%-------%-------%--------|---------------%-------%-------%-------%------------%---|
C#|-----%-------%------------%-------%-------%-------%--------|---------------%-------%-------%-------%------------%---|
G#|-----------------3------------------------------------3----|-3----3------------------------------------3------------|
D#|-1-------1-------1----1-------1-------1-------1-------1----|-1----1----1-------1-------1-------1-------1----1-------|

D#|--------------------------------------------------|-------------------------------------|
A#|--------------------------------------------------|-------------------------------------|
F#|-----%------------%-------%------------------5----|-5-----5----X----5----5----%---------|
C#|-----%------------%-------%---3----3----3----5----|-5-----5----X----5----5----%----5----|
G#|---------3--------------------3----3----3----3----|-3-----3----X----3----3---------5----|
D#|-1-------1----1-------1-------1----1----1---------|--------------------------------3----|

D#|-------------------------------------|---------------------------------|-------------------------------------|
A#|-------------------------------------|---------------------------------|-------------------------------------|
F#|---------------------------%----7----|-7-----7-----7----7----%----2----|-2-----2----X----2----2----X----5----|
C#|-5-----5----X----5----5----%----7----|-7-----7-----7----7----%----2----|-2-----2----X----2----2----X----5----|
G#|-5-----5----X----5----5---------5----|-5-----5-----5----5---------0----|-0-----0---------0----0---------3----|
D#|-3-----3----X----3----3--------------|---------------------------------|-------------------------------------|

D#|-----------------------------------------------------|-----------------------------------------------------|
A#|-----------------------------------------------------|-----------------------------------------------------|
F#|-5----5--------%-------%---5--------%-------%---5----|-----%-------%---5------------5----5--------%---5----|
C#|-5----5--------%-------%---5--------%-------%---5----|-----%-------%---5------------5----5--------%---5----|
G#|-3----3----3-------3------------3-------3------------|-3-------3------------3---3-------------3------------|
D#|-----------------------------------------------------|-----------------------------------------------------|

D#|-----------------------------------------------------|-----------------------------------------------------|
A#|-----------------------------------------------------|-----------------------------------------------------|
F#|-----%-------%---5------------5----5--------%---5----|-----%-------%---5------------5----5--------%--------|
C#|-----%-------%---5------------5----5--------%---5----|-----%-------%---5------------5----5--------%---5----|
G#|-3-------3------------3---3-------------3------------|-3-------3------------3---3-------------3-------5----|
D#|-----------------------------------------------------|------------------------------------------------3----|

D#|--------------------------------------------------------|--------------------------------------------------------|
A#|--------------------------------------------------------|--------------------------------------------------------|
F#|-----%-------%------------%-------%------------%--------|-----%-------%------------%-------%------------%--------|
C#|-----%-------%---5--------%-------%---5--------%---5----|-----%-------%---5--------%-------%---5--------%---5----|
G#|-----------------5--------------------5------------5----|-----------------5--------------------5------------5----|
D#|-3-------3------------3-------3------------3------------|-3-------3------------3-------3------------3------------|

D#|--------------------------------------------------------|--------------------------------------------------|
A#|--------------------------------------------------------|--------------------------------------------------|
F#|-----%-------%------------%-------%------------%--------|-----%-------%------------%-----------------------|
C#|-----%-------%---5--------%-------%---5--------%---5----|-----%-------%---5--------%---5----5----5----3----|
G#|-----------------5--------------------5------------5----|-----------------5------------5----5----5----3----|
D#|-3-------3------------3-------3------------3------------|-3-------3------------3-------3----3----3----1----|

D#|----------------------------------------------|---------------------------------|
A#|----------------------------------------------|---------------------------------|
F#|----------------%-------%------------%--------|----------------------------5----|
C#|-3-----3--------%-------%---3--------%---3----|-3-----3--------------------5----|
G#|-3-----3--------------------3------------3----|-3-----3----------3----5----3----|
D#|-1-----1----1-------1------------1-------1----|-1-----1-----5-------------------|

D#|-------------------------------------|----------------------------------------|-----------------------------------------|
A#|-------------------------------------|----------------------------------------|-----------------------------------------|
F#|-5-----5----X----5----5----%----5----|-5-----5------------5----5----%----4----|-4----3----4----3----4----3----4----3----|
C#|-5-----5----X----5----5----%----5----|-5-----5----X---X---5----5----%----4----|-4----3----4----3----4----3----4----3----|
G#|-3-----3----X----3----3---------3----|-3-----3----X---X---3----3---------2----|-2----1----2----1----2----1----2----1----|
D#|-------------------------------------|----------------------------------------|-----------------------------------------|

D#|-----------------------------------------|-----------------------------|---------------------------------|
A#|-----------------------------------------|-----------------------------|---------------------------------|
F#|-4----3----4----3----4----4--------------|-----------------------------|---------------------------------|
C#|-4----3----4----3----4----4--------------|-4-----------3----------4----|-4----4--------------3-----------|
G#|-2----1----2----1----2----2--------------|-2-----------1----------2----|-2----2--------------1-----------|
D#|-------------------------------3----0----|-------0-----------0---------|-----------3----0----------0-----|

D#|-----------------------------|---------------------------------|-----------------------------|
A#|-----------------------------|---------------------------------|-----------------------------|
F#|-----------------------------|---------------------------------|-----------------------------|
C#|-6-----------5----------6----|-6----6--------------5-----------|-6-----------5---------------|
G#|-4-----0-----3-----0----4----|-4----4----0----0----3-----0-----|-4-----0-----3-----0----4----|
D#|-----------------------------|---------------------------------|-----------------------------|

D#|---------------------------------|-----------------------------|-----------------------------------------|
A#|---------------------------------|-----------------------------|-----------------------------------------|
F#|---------------------------------|-----------------------------|-----------------------------------------|
C#|---------------------5-----------|-6-----------5---------------|---------------------5----5----4---------|
G#|-4----7----4----0----3-----0-----|-4-----0-----3-----0----4----|-4----7----4----0----3----3----2----0----|
D#|---------------------------------|-----------------------------|-----------------------------------------|

D#|-----------------------------|-----------------------------------------|---------|
A#|-----------------------------|-----------------------------------------|---------|
F#|-----------------------------|-----------------------------------------|-%-------|
C#|-6-----------5---------------|-----------------------------------------|-%-------|
G#|-4-----0-----3-----0----4----|-4----7----4----0----3----3----2----1----|---------|
D#|-----------------------------|-----------------------------------------|---------|

D#|---------|---------|---------|---------|---------|---------|----------------------------|
A#|---------|---------|---------|---------|---------|---------|----------------------------|
F#|-%-------|-%-------|-%-------|-%-------|-%-------|-%-------|-%--------------------------|
C#|-%-------|-%-------|-%-------|-%-------|-%-------|-%-------|-%------5----5----5----3----|
G#|---------|---------|---------|---------|---------|---------|--------5----5----5----3----|
D#|---------|---------|---------|---------|---------|---------|--------3----3----3----1----|

D#|----------------------------------------------|-----------------------------------------------|
A#|----------------------------------------------|-----------------------------------------------|
F#|----------------%-------%------------%--------|-----%-------%----------------------------5----|
C#|-3-----3--------%-------%------------%--------|-----%-------%----------------------------5----|
G#|-3-----3--------------------3------------3----|-----------------3--------------3----5----3----|
D#|-1-----1----1-------1-------1----1-------1----|-1-------1-------1----0----5-------------------|

D#|----------------------------------------|---------------------------------|-----------------------------|
A#|----------------------------------------|---------------------------------|-----------------------------|
F#|-5-----5----X---X---5----5---------5----|-5-----5-----5----6----%---------|-----------------------------|
C#|-5-----5----X---X---5----5----X----5----|-5-----5-----5----6----%---------|-----------------------------|
G#|-3-----3----X---X---3----3----X----3----|-3-----3-----3----4---------5----|-5-----0-----4-----0----3----|
D#|----------------------------------------|---------------------------------|-----------------------------|

D#|-----------------------------------------|----------------------------------------|
A#|-----------------------------------------|----------------------------------------|
F#|------------------------------------4----|-4-----4----X---X---4----5----6----7----|
C#|---------------------0----2---------4----|-4-----4----X---X---4----5----6----7----|
G#|-3---------0----2--------------0----2----|-2-----2----X---X---2----3----4----5----|
D#|------3----------------------------------|----------------------------------------|

D#|----------------------------------------|-------------------------------------|------------------------------------|
A#|----------------------------------------|-------------------------------------|------------------------------------|
F#|-7-----7----X---X---7--------------2----|-2-----2----X----2-------------------|------------------------------------|
C#|-7-----7----X---X---7--------------2----|-2-----2----X----2--------------2----|-2-----2----X---X---2----------5----|
G#|-5-----5----X---X---5---------4----0----|-0-----0----X----0--------------2----|-2-----2----X---X---2----------5----|
D#|-------------------------0--------------|----------------------3----2----0----|-0-----0----X---X---0-----2----3----|

D#|----------------------------------------|---------------------------------|-----------------------------------------|
A#|----------------------------------------|---------------------------------|-----------------------------------------|
F#|-----------------------------------7----|-7-----7-----7----6----%----5----|-5----4----5----4----5----4----5----4----|
C#|-5-----5----X---X---5--------------7----|-7-----7-----7----6----%----5----|-5----4----5----4----5----4----5----4----|
G#|-5-----5----X---X---5--------------5----|-5-----5-----5----4---------3----|-3----2----3----2----3----2----3----2----|
D#|-3-----3----X---X---3----2----0---------|---------------------------------|-----------------------------------------|

D#|-----------------------------------------|---------------------------------|---------------------------------|
A#|-----------------------------------------|---------------------------------|---------------------------------|
F#|-5----4----5----4----5-------------------|-----------------------%---------|-----------------------%----7----|
C#|-5----4----5----4----5--------------2----|-2-----2-----2----2----%----5----|-5-----5-----5----5----%----7----|
G#|-3----2----3----2----3--------------2----|-2-----2-----2----2---------5----|-5-----5-----5----5---------5----|
D#|--------------------------3----2----0----|-0-----0-----0----0---------3----|-3-----3-----3----3--------------|

D#|---------------------------------|---------------------------------|---------------------------------|
A#|---------------------------------|---------------------------------|---------------------------------|
F#|-7-----7-----7----7----%----2----|-2-----2-----2----2----%----5----|-5-----5-----5-------------------|
C#|-7-----7-----7----7----%----2----|-2-----2-----2----2----%----5----|-5-----5-----5--------------5----|
G#|-5-----5-----5----5---------0----|-0-----0-----0----0---------3----|-3-----3-----3----2----0----5----|
D#|---------------------------------|---------------------------------|----------------------------3----|

D#|-----------------------------|-----------------------------------------|-----------------------------------------|
A#|-----------------------------|-----------------------------------------|-----------------------------------------|
F#|-----------------------------|-----------------------------------------|-------------------------------%----2----|
C#|-5-----5-----5---------------|-----------------------------------------|-------------------------------%----2----|
G#|-5-----5-----5----4-----3----|-3---------3---------3---------3---------|-3---------3---------3----5---------0----|
D#|-3-----3-----3----2-----1----|-1----0----1----0----1----0----1----0----|-1----0----1----0----1----3--------------|

D#|----------------------------------------|----------------------------------------|
A#|----------------------------------------|----------------------------------------|
F#|-2-----2----X---X---2----2----%----5----|-5-----5----X---X---5----5----%---------|
C#|-2-----2----X---X---2----2----%----5----|-5-----5----X---X---5----5----%----5----|
G#|-0-----0----0---0---0----0---------3----|-3-----3----3---3---3----3---------5----|
D#|----------------------------------------|-----------------------------------3----|

D#|----------------------------------------|-------------------------------------|-------------------------------------|
A#|----------------------------------------|-------------------------------------|-------------------------------------|
F#|-----------------------------------7----|-7-----7----6----7----7----%---------|---------------------------%----5----|
C#|-5-----5----X---X---5----5----X----7----|-7-----7----6----7----7----%----3----|-3-----3----X----3----3----%----5----|
G#|-5-----5----X---X---5----5----X----5----|-5-----5----4----5----5---------3----|-3-----3----X----3----3---------3----|
D#|-3-----3----3---3---3----3----X---------|--------------------------------1----|-1-----1----1----1----1--------------|

D#|----------------------------------------|-----------------------------------------|
A#|----------------------------------------|-----------------------------------------|
F#|-5-----5----X---X---5----4----%----3----|-3---------3---------3---------3---------|
C#|-5-----5----X---X---5----4----%----3----|-3---------3---------3---------3---------|
G#|-3-----3----3---3---3----2---------1----|-1----0----1----0----1----0----1----0----|
D#|----------------------------------------|-----------------------------------------|

D#|-----------------------------------------|--------------------------------------------|
A#|-----------------------------------------|--------------------------------------------|
F#|-3---------3---------3----5----5----7----|-7----7----7----X---X---7----7----%----10---|
C#|-3---------3---------3----5----5----7----|-7----7----7----X---X---7----7----%----10---|
G#|-1----0----1----0----1----3----3----5----|-5----5----5----5---5---5----5---------8----|
D#|-----------------------------------------|--------------------------------------------|

D#|----------------------------------------|----------------------------------------|
A#|----------------------------------------|----------------------------------------|
F#|-10----10---X---X---10---10---%----5----|-5-----5----X---X---5----5----%---------|
C#|-10----10---X---X---10---10---%----5----|-5-----5----X---X---5----5----%----5----|
G#|-8-----8----8---8---8----8---------3----|-3-----3----3---3---3----3---------5----|
D#|----------------------------------------|-----------------------------------3----|

D#|----------------------------------------|----------------------------------------|
A#|----------------------------------------|----------------------------------------|
F#|------------------------------%----3----|-3-----3----X---X---3----3----%---------|
C#|-5-----5----X---X---5----5----%----3----|-3-----3----X---X---3----3----%----3----|
G#|-5-----5----X---X---5----5---------1----|-1-----1----1---1---1----1---------3----|
D#|-3-----3----3---3---3----3--------------|-----------------------------------1----|

D#|----------------------------------------|-----------------------------------------|
A#|----------------------------------------|-----------------------------------------|
F#|--------------------10---10---%----8----|-8----7----8----7----8----7----8----7----|
C#|-3-----3----X---X---10---10---%----8----|-8----7----8----7----8----7----8----7----|
G#|-3-----3----X---X---8----8---------6----|-6----5----6----5----6----5----6----5----|
D#|-1-----1----1---1-----------------------|-----------------------------------------|

D#|-----------------------------------------|---------------------------------|-------------------------------------|
A#|-----------------------------------------|---------------------------------|-------------------------------------|
F#|-8----7----8----7----8-------------------|-----------------------%----3----|-3-----3----X----3----3----%---------|
C#|-8----7----8----7----8----3----3----5----|-5-----5-----5----5----%----3----|-3-----3----X----3----3----%----3----|
G#|-6----5----6----5----6----3----3----5----|-5-----5-----5----5---------1----|-1-----1----1----1----1---------3----|
D#|--------------------------1----1----3----|-3-----3-----3----3--------------|--------------------------------1----|

D#|---------------------------------|----------------------------------------|----------------------------------------|
A#|---------------------------------|----------------------------------------|----------------------------------------|
F#|-----------------------%----5----|-5-----5----X---X---5----5----%----8----|-8-----8----X---X---8----8----%----3----|
C#|-3-----3-----3----3----%----5----|-5-----5----X---X---5----5----%----8----|-8-----8----X---X---8----8----%----3----|
G#|-3-----3-----3----3---------3----|-3-----3----3---3---3----3---------6----|-6-----6----6---6---6----6---------1----|
D#|-1-----1-----1----1--------------|----------------------------------------|----------------------------------------|

D#|----------------------------------------|-----------------------------------------|
A#|----------------------------------------|-----------------------------------------|
F#|-3-----3----X---X---3---------%---------|-----------------------------------------|
C#|-3-----3----X---X---3---------%----6----|-6----5----6----5----6----5----6----5----|
G#|-1-----1----1---1---1----0---------6----|-6----5----6----5----6----5----6----5----|
D#|-----------------------------------4----|-4----3----4----3----4----3----4----3----|

D#|-----------------------------------------|----------------------------------------|
A#|-----------------------------------------|----------------------------------------|
F#|-------------------------------%----5----|-5-----5----X---X---5----5----%----8----|
C#|-6----5----6----5----6----8----%----5----|-5-----5----X---X---5----5----%----8----|
G#|-6----5----6----5----6----8---------3----|-3-----3----3---3---3----3---------6----|
D#|-4----3----4----3----4----6--------------|----------------------------------------|

D#|-----------------------------------------|-------------------------------------|
A#|-----------------------------------------|-------------------------------------|
F#|-8----8----8----X----8----8----X----3----|-3-----3----X----3----3----X---------|
C#|-8----8----8----X----8----8----X----3----|-3-----3----X----3----3----X----3----|
G#|-6----6----6----6----6----6----6----1----|-1-----1----1----1----1----X----3----|
D#|-----------------------------------------|--------------------------------1----|

D#|-------------------------------------|-------------------------------------|----------------------------------------|
A#|-------------------------------------|-------------------------------------|----------------------------------------|
F#|---------------------------%---------|---------------------------%----8----|-8-----8----X---X---8----7----%----6----|
C#|-3-----3----X----3----3----%----6----|-6-----6----6----6----6----%----8----|-8-----8----X---X---8----7----%----6----|
G#|-3-----3----X----3----3---------6----|-6-----6----6----6----6---------6----|-6-----6----6---6---6----5---------4----|
D#|-1-----1----1----1----1---------4----|-4-----4----X----4----4--------------|----------------------------------------|

D#|-----------------------------------------|-----------------------------------------|
A#|-----------------------------------------|-----------------------------------------|
F#|-6----5----6----5----6----5----6----5----|-6----5----6----5----6----5----%----6----|
C#|-6----5----6----5----6----5----6----5----|-6----5----6----5----6----5----%----6----|
G#|-4----3----4----3----4----3----4----3----|-4----3----4----3----4----3---------4----|
D#|-----------------------------------------|-----------------------------------------|

D#|-----------------------------------------|-----------------------------------------|
A#|-----------------------------------------|-----------------------------------------|
F#|-6----5----6----5----6----5----6----5----|-6----5----6----5----6----5----%----6----|
C#|-6----5----6----5----6----5----6----5----|-6----5----6----5----6----5----%---------|
G#|-4----3----4----3----4----3----4----3----|-4----3----4----3----4----3--------------|
D#|-----------------------------------------|-----------------------------------------|

D#|-----------------------------------------------------------|--------------------------------------------------|
A#|-----------------------------------------------------------|--------------------------------------------------|
F#|-6---------------6---------------------6---6---------------|---------6--------------------6----8----%----10---|
C#|-----------------------------------------------------------|------------------------------6----8----%----10---|
G#|-----4---4---4---------4---4---4---4-----------4---4---4---|-4---4--------4---4---4---4---4----6---------8----|
D#|-----------------------------------------------------------|--------------------------------------------------|

D#|---------|---------|---------|---------|---------|---------|---------|
A#|---------|---------|---------|---------|---------|---------|---------|
F#|-10------|-10------|-10------|-%-------|-%-------|-%-------|-%-------|
C#|-10------|-10------|-10------|-%-------|-%-------|-%-------|-%-------|
G#|-8-------|-8-------|-8-------|---------|---------|---------|---------|
D#|---------|---------|---------|---------|---------|---------|---------|
Guns N' Roses - Coma
Guns N' Roses - Coma.gp3