Guns N' Roses - Dead Horse (2)

Guns N Roses



Title: Dead Horse
Album: Use your Ilusion I
Artist: 
Author: Guns N' Roses

Track 1: Acous. Guitar
E|-------------------------------------|-------------------------------------|-------------------------------------|
B|-------------------------------------|-------------------------------------|-------------------------------------|
G|------------%--------------%---------|------------%--------------%---------|------------%------------------------|
D|-7-----7----%---------7----%----9----|-9-----9----%---------9----%----6----|-6-----6----%---------4----6----7----|
A|-7-----7--------------7---------9----|-9-----9--------------9---------6----|-6-----6--------------4----6----7----|
E|-5-----5---------X----5---------7----|-7-----7---------X----7---------4----|-4-----4---------X----2----4----5----|

E|-------------------------------------|-------------------------------------|-------------------------------------|
B|-------------------------------------|-------------------------------------|-------------------------------------|
G|------------%------------------------|------------%--------------%---------|------------%--------------%---------|
D|-7-----7----%---------6----7----6----|-7-----7----%---------7----%----9----|-9-----9----%---------9----%----2----|
A|-7-----7--------------6----7----6----|-7-----7--------------7---------9----|-9-----9--------------9---------2----|
E|-5-----5---------X----4----5----4----|-5-----5---------X----5---------7----|-7-----7---------X----7---------0----|

E|---------------------------------|-----------------------------------------|-------------------------------------|
B|---------------------------------|-----------------------------------------|-------------------------------------|
G|---------------------------------|-----------------------------------------|------------%--------------%---------|
D|-2-----2----------2---------2----|-2---------------------------------------|-------7----%---------7----%----9----|
A|-2-----2----------2---------2----|-2----2----4----4----5----5----6----6----|-7-----7--------------7---------9----|
E|-0-----0-----0----0----0----0----|-0----0----2----2----3----3----4----4----|-5-----5---------X----5---------7----|

E|-------------------------------------|-------------------------------------|-------------------------------------|
B|-------------------------------------|-------------------------------------|-------------------------------------|
G|------------%--------------%---------|------------%------------------------|------------%------------------------|
D|-9-----9----%---------11---%----6----|-6-----6----%---------7----9----7----|-7-----7----%---------6----7----6----|
A|-9-----9--------------11--------6----|-6-----6--------------7----9----7----|-7-----7--------------6----7----6----|
E|-7-----7---------X----9---------4----|-4-----4---------X----5----7----5----|-5-----5---------X----4----5----4----|

E|-------------------------------------|-------------------------------------|---------------------------------|
B|-------------------------------------|-------------------------------------|---------------------------------|
G|------------%------------------------|------------%------------------------|---------------------------------|
D|-7-----7----%---------6----7----9----|-9-----9----%---------9---------2----|-2-----2----------2---------2----|
A|-7-----7--------------6----7----9----|-9-----9--------------9---------2----|-2-----2----------2---------2----|
E|-5-----5---------X----4----5----7----|-7-----7---------X----7----X----0----|-0-----0-----0----0----0----0----|

E|-----------------------------------------|-------------------------------------|-------------------------------------|
B|-----------------------------------------|-------------------------------------|-------------------------------------|
G|-----------------------------------------|------------%--------------%---------|------------%--------------%---------|
D|-2---------------------------------------|-------7----%---------11---%----9----|-9-----9----%---------9----%----6----|
A|-2----2----4----4----5----5----6----6----|-7-----7--------------11--------9----|-9-----9--------------9---------6----|
E|-0----0----2----2----3----3----4----4----|-5-----5---------X----9---------7----|-7-----7---------X----7---------4----|

E|-------------------------------------|-------------------------------------|-------------------------------------|
B|-------------------------------------|-------------------------------------|-------------------------------------|
G|------------%------------------------|------------%------------------------|------------%--------------%---------|
D|-6-----6----%---------4----6----7----|-7-----7----%---------6----7----6----|-7-----7----%---------7----%----9----|
A|-6-----6--------------4----6----7----|-7-----7--------------6----7----6----|-7-----7--------------7---------9----|
E|-4-----4---------X----2----4----5----|-5-----5---------X----4----5----4----|-5-----5---------X----5---------7----|

E|-------------------------------------|---------------------------------|-----------------------------------------|
B|-------------------------------------|---------------------------------|-----------------------------------------|
G|------------%--------------%---------|---------------------------------|-----------------------------------------|
D|-9-----9----%---------9----%----2----|-2-----2----------2---------2----|-2---------------------------------------|
A|-9-----9--------------9---------2----|-2-----2----------2---------2----|-2----2----4----4----5----5----6----6----|
E|-7-----7---------X----7---------0----|-0-----0-----0----0----0----0----|-0----0----2----2----3----3----4----4----|

E|-------------------------------------|-------------------------------------|-------------------------------------|
B|-------------------------------------|-------------------------------------|-------------------------------------|
G|------------%------------------------|------------%--------------%---------|------------%------------------------|
D|-------7----%---------7----8----9----|-9-----9----%---------11---%----6----|-6-----6----%---------4----6----7----|
A|-7-----7--------------7----8----9----|-9-----9--------------11--------6----|-6-----6--------------4----6----7----|
E|-5-----5---------X----5----6----7----|-7-----7---------X----9---------4----|-4-----4---------X----2----4----5----|

E|-------------------------------------|-------------------------------------|-------------------------------------|
B|-------------------------------------|-------------------------------------|-------------------------------------|
G|-------------------------------------|------------%------------------------|------------%--------------%---------|
D|-7-----7----6----7----6----7----6----|-7-----7----%---------7----8----9----|-9-----9----%---------11---%----2----|
A|-7-----7----6----7----6----7----6----|-7-----7--------------7----8----9----|-9-----9--------------11--------2----|
E|-5-----5----4----5----4----5----4----|-5-----5---------X----5----6----7----|-7-----7---------X----9---------0----|

E|---------|---------|---------|---------|---------|---------|---------|---------|---------|
B|---------|---------|---------|---------|---------|---------|---------|---------|---------|
G|---------|---------|-%-------|-%-------|-%-------|-%-------|-%-------|-%-------|-%-------|
D|-2-------|-2-------|-%-------|-%-------|-%-------|-%-------|-%-------|-%-------|-%-------|
A|-2-------|-2-------|---------|---------|---------|---------|---------|---------|---------|
E|-0-------|-0-------|---------|---------|---------|---------|---------|---------|---------|

E|---------|---------|---------|---------|---------|---------|---------|---------|---------|
B|---------|---------|---------|---------|---------|---------|---------|---------|---------|
G|-%-------|-%-------|-%-------|-%-------|-%-------|-%-------|-%-------|-%-------|-%-------|
D|-%-------|-%-------|-%-------|-%-------|-%-------|-%-------|-%-------|-%-------|-%-------|
A|---------|---------|---------|---------|---------|---------|---------|---------|---------|
E|---------|---------|---------|---------|---------|---------|---------|---------|---------|

E|---------|---------|---------|---------|---------|---------|---------|---------|---------|
B|---------|---------|---------|---------|---------|---------|---------|---------|---------|
G|-%-------|-%-------|-%-------|-%-------|-%-------|-%-------|-%-------|-%-------|-%-------|
D|-%-------|-%-------|-%-------|-%-------|-%-------|-%-------|-%-------|-%-------|-%-------|
A|---------|---------|---------|---------|---------|---------|---------|---------|---------|
E|---------|---------|---------|---------|---------|---------|---------|---------|---------|

E|---------|---------|---------|---------|---------|---------|---------|---------|---------|
B|---------|---------|---------|---------|---------|---------|---------|---------|---------|
G|-%-------|-%-------|-%-------|-%-------|-%-------|-%-------|-%-------|-%-------|-%-------|
D|-%-------|-%-------|-%-------|-%-------|-%-------|-%-------|-%-------|-%-------|-%-------|
A|---------|---------|---------|---------|---------|---------|---------|---------|---------|
E|---------|---------|---------|---------|---------|---------|---------|---------|---------|

E|---------|---------|---------|---------|---------|---------|---------|---------|---------|
B|---------|---------|---------|---------|---------|---------|---------|---------|---------|
G|-%-------|-%-------|-%-------|-%-------|-%-------|-%-------|-%-------|-%-------|-%-------|
D|-%-------|-%-------|-%-------|-%-------|-%-------|-%-------|-%-------|-%-------|-%-------|
A|---------|---------|---------|---------|---------|---------|---------|---------|---------|
E|---------|---------|---------|---------|---------|---------|---------|---------|---------|

E|---------|---------|---------|---------|---------|---------|---------|---------|---------|
B|---------|---------|---------|---------|---------|---------|---------|---------|---------|
G|-%-------|-%-------|-%-------|-%-------|-%-------|-%-------|-%-------|-%-------|-%-------|
D|-%-------|-%-------|-%-------|-%-------|-%-------|-%-------|-%-------|-%-------|-%-------|
A|---------|---------|---------|---------|---------|---------|---------|---------|---------|
E|---------|---------|---------|---------|---------|---------|---------|---------|---------|

E|---------|---------|---------|---------|---------|---------|---------|---------|---------|
B|---------|---------|---------|---------|---------|---------|---------|---------|---------|
G|-%-------|-%-------|-%-------|-%-------|-%-------|-%-------|-%-------|-%-------|-%-------|
D|-%-------|-%-------|-%-------|-%-------|-%-------|-%-------|-%-------|-%-------|-%-------|
A|---------|---------|---------|---------|---------|---------|---------|---------|---------|
E|---------|---------|---------|---------|---------|---------|---------|---------|---------|

E|---------|---------|---------|---------|---------|---------|---------|---------|---------|
B|---------|---------|---------|---------|---------|---------|---------|---------|---------|
G|-%-------|-%-------|-%-------|-%-------|-%-------|-%-------|-%-------|-%-------|-%-------|
D|-%-------|-%-------|-%-------|-%-------|-%-------|-%-------|-%-------|-%-------|-%-------|
A|---------|---------|---------|---------|---------|---------|---------|---------|---------|
E|---------|---------|---------|---------|---------|---------|---------|---------|---------|

E|---------|---------|---------|---------|---------|---------|---------|---------|---------|
B|---------|---------|---------|---------|---------|---------|---------|---------|---------|
G|-%-------|-%-------|-%-------|-%-------|-%-------|-%-------|-%-------|-%-------|-%-------|
D|-%-------|-%-------|-%-------|-%-------|-%-------|-%-------|-%-------|-%-------|-%-------|
A|---------|---------|---------|---------|---------|---------|---------|---------|---------|
E|---------|---------|---------|---------|---------|---------|---------|---------|---------|

E|---------|---------|---------|-------------------------------------|-------------------------------------|
B|---------|---------|---------|-------------------------------------|-------------------------------------|
G|-%-------|-%-------|-%-------|------------%--------------%---------|------------%--------------%---------|
D|-%-------|-%-------|-%-------|-7-----7----%---------7----%----9----|-9-----9----%---------9----%----6----|
A|---------|---------|---------|-7-----7--------------7---------9----|-9-----9--------------9---------6----|
E|---------|---------|---------|-5-----5---------X----5---------7----|-7-----7---------X----7---------4----|

E|-------------------------------------|-------------------------------------|-------------------------------------|
B|-------------------------------------|-------------------------------------|-------------------------------------|
G|------------%------------------------|------------%------------------------|------------%--------------%---------|
D|-6-----6----%---------4----6----7----|-7-----7----%---------6----7----6----|-7-----7----%---------7----%----9----|
A|-6-----6--------------4----6----7----|-7-----7--------------6----7----6----|-7-----7--------------7---------9----|
E|-4-----4---------X----2----4----5----|-5-----5---------X----4----5----4----|-5-----5---------X----5---------7----|

E|-------------------------------------|---------------------------------|-----------------------------------------|
B|-------------------------------------|---------------------------------|-----------------------------------------|
G|------------%--------------%---------|---------------------------------|-----------------------------------------|
D|-9-----9----%---------9----%----2----|-2-----2----------2---------2----|-2---------------------------------------|
A|-9-----9--------------9---------2----|-2-----2----------2---------2----|-2----2----4----4----5----5----6----6----|
E|-7-----7---------X----7---------0----|-0-----0-----0----0----0----0----|-0----0----2----2----3----3----4----4----|

E|------------------------|
B|------------------------|
G|------%----%-----%------|
D|------%----%-----%------|
A|-7----------------------|
E|-5----------------------|
Guns N' Roses - Dead Horse (2)
Guns N' Roses - Dead Horse (2).gp4