Guns N' Roses - Don't Cry

Guns N Roses



Title: Don't Cry ( Version Originale )
Album: 
Artist: 
Author: Gun's n Roses

Track 1: Guitar 1 ( clean )
D#|---------|--------------0----------------------------1---------------|-----------------3-----------------------------------------------|
A#|---------|------------------1--------------------3-------3-----------|---------------------3-------------------------------------------|
F#|---------|----------2-----------2------------2---------------2-------|-------------0-----------0---------------0-----------0-----------|
C#|---------|------2-------------------0---0----------------------------|---------0---------------------------0-----------0---------------|
G#|---------|-0-----------------------------------------------------0---|-----2-----------------------0---3-----------2-----------3---2---|
D#|-3-------|-----------------------------------------------------------|-3---------------------------------------------------------------|

D#|--------------0----------------------------1---------------|---------------------------------|
A#|------------------1--------------------3-------3-----------|---------------------------------|
F#|----------2-----------2------------2---------------2-------|-------------0---0---------------|
C#|------2-------------------0---0----------------------------|---------0-----------------------|
G#|-0-----------------------------------------------------0---|-----2---------------------------|
D#|-----------------------------------------------------------|-3-------------------2---3---4---|

D#|---------|--------------0----------------------------1---------------|-----------------3-----------------------------------------------|
A#|---------|------------------1--------------------3-------3-----------|---------------------3-------------------------------------------|
F#|---------|----------2-----------2------------2---------------2-------|-------------0-----------0---------------0-----------0-----------|
C#|-2-------|------2-------------------0---0----------------------------|---------0---------------------------0-----------0---------------|
G#|-0-------|-0-----------------------------------------------------0---|-----2-----------------------0---3-----------2-----------3---2---|
D#|---------|-----------------------------------------------------------|-3---------------------------------------------------------------|

D#|--------------0----------------------------1---------------|-----------------3-----------------------------------------------|
A#|------------------1--------------------3-------3-----------|---------------------3-------------------------------------------|
F#|----------2-----------2------------2---------------2-------|-------------0-----------0---------------0-----------0-----------|
C#|------2-------------------0---0------------------------0---|---------0---------------------------2-----------0---------------|
G#|-0---------------------------------------------------------|-----2-----------------------0---3-----------2-----------3---2---|
D#|-----------------------------------------------------------|-3---------------------------------------------------------------|

D#|----------3---0----------------------------1---------------|-----------------3-----------------------------------------------|
A#|------------------1--------------------3-------3-----------|---------------------3-------------------------------------------|
F#|------0---------------2------------2---------------2-------|-------------0-----------0---------------0-----------0-----------|
C#|--------------------------0---0------------------------0---|---------0---------------------------2-----------0---------------|
G#|-0---------------------------------------------------------|-----2-----------------------0---3-----------2-----------3---2---|
D#|-----------------------------------------------------------|-3---------------------------------------------------------------|

D#|--------------0----------------------------1---------------|-----------------3-----------------------------------------|
A#|------------------1--------------------3-------3-----------|---------------------3-------------------------------------|
F#|----------2-----------2------------2---------------2-------|-------------0-----------0---------------0---------X---X---|
C#|------2-------------------0---0------------------------0---|---------0---------------------------2-------------X---X---|
G#|-0---------------------------------------------------------|-----2-----------------------0---3------------2----X---X---|
D#|-----------------------------------------------------------|-3---------------------------------------------------------|

D#|---------------------3-----3------------|-0-----0-----------------------------------|
A#|-1---------1---------3-----3------------|-1-----1-----X---X----X----X---X---X---X---|
F#|-0---2-----2-----0---0-----0------------|-2-----2-----X---X----X----X---X---X---X---|
C#|-3---------3-----0---0-----0------------|-2-----2-----X---X----X----X---X---X---X---|
G#|-3---------3--------------------3---2---|-0-----0-----------------------------------|
D#|-1---------1---------3-----3------------|-------------------------------------------|

D#|-1---1---1---1---1---------------------|----------------------------------0---------------------------|
A#|-1---1---1---1---1---------------------|----------1---1-------3---3---3---1---X---1---1-------0-------|
F#|-2---2---2---2---2---------0-----------|------2---2---2-------2---2---2-------X---2---2-------0-------|
C#|-3---3---3---3---3----0-----------0----|------2-----------2---2---2---2-------X---2---2---0-------0---|
G#|-3-------------------------------------|-0------------------------------------------------------------|
D#|-1-------------------------------------|--------------------------------------------------------------|

D#|---------------------------------------|-------------------3-----------0---5-------------------3---|
A#|------1-------1----1---0---3----3------|-1--------1------------1---1-----------1-----------1-------|
F#|-2----2---0---2----2---0---0----0------|-0----0--------------------2-------------------0-----------|
C#|-3----3-------3----3---0---0----0------|-2-------------------------2---------------0---------------|
G#|---------------------------------------|-3------------2------------0-------------------------------|
D#|---------------------------3----3------|-------------------------------------------3---------------|

D#|----------------------------3--------------------|----------------------------------------------|
A#|-1-------------1-------3----3---3---3------------|-1------------------0---0---1-----------------|
F#|-2-----0---2---2---0---0--------0---0------------|-2----------------------------------2---2-----|
C#|-3-----3-------3---0---0-------------------------|-2-----2---2---2----------------2-------------|
G#|-3---------------------------------------2---0---|-0--------------------------------------------|
D#|-1---------------------3-------------------------|----------------------------------------------|

D#|---------|---------|---------|---------|---------|---------|---------|---------|
A#|---------|---------|---------|---------|---------|---------|---------|---------|
F#|-%-------|-%-------|-%-------|-%-------|-%-------|-%-------|-%-------|-%-------|
C#|-%-------|-%-------|-%-------|-%-------|-%-------|-%-------|-%-------|-%-------|
G#|---------|---------|---------|---------|---------|---------|---------|---------|
D#|---------|---------|---------|---------|---------|---------|---------|---------|

D#|---------|---------|---------|---------|---------|---------|---------|---------|
A#|---------|---------|---------|---------|---------|---------|---------|---------|
F#|-%-------|-%-------|-%-------|-%-------|-%-------|-%-------|-%-------|-%-------|
C#|-%-------|-%-------|-%-------|-%-------|-%-------|-%-------|-%-------|-%-------|
G#|---------|---------|---------|---------|---------|---------|---------|---------|
D#|---------|---------|---------|---------|---------|---------|---------|---------|

D#|---------|---------|---------|---------|---------|---------|---------|---------|
A#|---------|---------|---------|---------|---------|---------|---------|---------|
F#|-%-------|-%-------|-%-------|-%-------|-%-------|-%-------|-%-------|-%-------|
C#|-%-------|-%-------|-%-------|-%-------|-%-------|-%-------|-%-------|-%-------|
G#|---------|---------|---------|---------|---------|---------|---------|---------|
D#|---------|---------|---------|---------|---------|---------|---------|---------|

D#|---------|-1-----1---1----1---0---3-----3------------|-------------------------------------0-------0-------------------|
A#|---------|-3-----3---3----3---0---3-----3------------|---------------------------------------------1-------------------|
F#|-%-------|-2-----2---2----2---0---0-----0--------0---|---------0-----------0-------------------2-------0-------2---0---|
C#|-%-------|-0-----0---0----0---0---0-----0------------|-----0-----------0-----------------------2-------0-------2---0---|
G#|---------|-----------------------------------2-------|-3-----------2-----------3---2---0-------------------0-----------|
D#|---------|------------------------3-----3------------|-----------------------------------------------------------------|

D#|------1---1---1----1---0--------3---3---3---3---3---0---|--------------------------------3-------------------|
A#|------3---3---3----3---0--------3---3---3---3---3---0---|--------------------------------1----0----1----0----|
F#|-2----2---2---2----2---0---0----0---0---0---0---0---0---|------0-------------------------2----2----2----2----|
C#|-0----0---0---0----0---0---0----0---0---0---0---0---0---|--------------------------------2----2----2----2----|
G#|--------------------------------------------------------|-3--------2---2----3---2---0------------------------|
D#|---------------------------3----------------------------|----------------------------------------------------|

D#|------1---1---1----1---0--------3---3---3---3---3---0---|--------------------------------------0----0---0-----------|
A#|------3---3---3----3---0--------3---3---3---3---3---0---|--------------------------------------1----0---1---1---0---|
F#|-2----2---2---2----2---0---0----0---0---0---0---0---0---|---------0-----------0----------------2----2---2---2---2---|
C#|-0----0---0---0----0---0---0----0---0---0---0---0---0---|-----0-----------0--------------------2----2---2---2---2---|
G#|--------------------------------------------------------|-3-----------2-----------3---2---0-------------------------|
D#|---------------------------3----------------------------|-----------------------------------------------------------|

D#|------1---1---1----1---0--------3---3---3---3---3---0---|-----------------------------------------------------------------|
A#|------3---3---3----3---0--------3---3---3---3---3---0---|-------------1---------------1---------------1---------------0---|
F#|-2----2---2---2----2---0---0----0---0---0---0---0---0---|---------0---------------0---------------2---------------0-------|
C#|-0----0---0---0----0---0---0----0---0---0---0---0---0---|-----2---------------0---------------2---------------0-----------|
G#|--------------------------------------------------------|-3---------------2---------------0-------------------------------|
D#|---------------------------3----------------------------|-------------------------------------------------3---------------|

D#|-1-----1---1---1---1------------3---3------------|--------------------------------------------------------------|
A#|-1-----1---1---1---1---3----3---3---3----3---3---|------1---1---1---1---1---3-------1-----------0---1-----------|
F#|-2-----2---2---2---2---0----0------------0---0---|------2---2---2---2---2---2---%---2-----------2-------2---0---|
C#|-3-----3---3---3---3---0----0------------0---0---|------2---2---2---2---2---2---%---2-----------2-------2---0---|
G#|-3-----------------------------------------------|-0------------------------------------0---0-------------------|
D#|-1---------------------3-------------------------|--------------------------------------------------------------|

D#|-1------------------------------------------------|----------------------------------------------------------|
A#|-1----1---1---1---1---1-------3----3----3----3----|-----------0---1-----------1---------------1----3----3----|
F#|-2----2---2---2---2---2-------0----0----0----0----|-2---------2---------------2---------------2----0----0----|
C#|-3----3---3---3---3---3---3---0----0----0----0----|-2---------2---------------2---------------2----0----0----|
G#|-3----3---3---3---3---3---3-----------------------|------0------------0---0-------0---0---0---0--------------|
D#|-1----1---1---1---1---1---1---3----3----3----3----|------------------------------------------------3----3----|

D#|-1------------------------------------------------|-----------------------------------------------------------------|
A#|-1----1---1---1---1---1-------3----3----3----3----|-------------1---------------1---------------1---------------0---|
F#|-2----2---2---2---2---2-------0----0----0----0----|---------0---------------0---------------2---------------0-------|
C#|-3----3---3---3---3---3---3---0----0----0----0----|-----2---------------0---------------2---------------0-----------|
G#|-3----3---3---3---3---3---3-----------------------|-3---------------2---------------0-------------------------------|
D#|-1----1---1---1---1---1---1---3----3----3----3----|-------------------------------------------------3---------------|

D#|-1---------------------3---3---3---3---3---3---3---3---|-1------------------------------------------------------------|
A#|-1-----1---1---1---1---3---3---3---3---3---3---3---3---|-1----1---1---1---1---1-------3---3---3---3---3---3---3---3---|
F#|-2-----2---2---2---2---0---0---0---0---0---0---0---0---|-2----2---2---2---2---2-------0---0---0---0---0---0---0---0---|
C#|-3-----3---3---3---3---0---0---0---0---0---0---0---0---|-3----3---3---3---3---3---3---0---0---0---0---0---0---0---0---|
G#|-3-----3---3---3---3-----------------------------------|-3----3---3---3---3---3---3-----------------------------------|
D#|-1-----1---1---1---1---3---3---3---3---3---3---3---3---|-1----1---1---1---1---1---1---3---3---3---3---3---3---3---3---|

D#|-----------------------------------------------------------|-0-----------0---0---0---0---0---1---1---1---1---1----1---1---|
A#|-------1---1-------1-------3---3---3---3---3---3---3---3---|-0-------0-------0---0---0---0---1---1---1---1---1----1---1---|
F#|-2---------0---2---0-------0---0---0---0---0---0---0---0---|-1---1---------------------------2---2---2---2---2----2---2---|
C#|-3---------3-----------3---0---0---0---0---0---0---0---0---|-2-------------------------------3---3---3---3---3----3---3---|
G#|-3---------------------3-----------------------------------|-2------------------------------------------------------------|
D#|-1-------------------------3---3---3---3---3---3---3---3---|-0------------------------------------------------------------|

D#|-1----------------------3---3---3---3---3---3---3---3---|---------------------------------3----3---3---3----3---3---|
A#|-1----1----1----1---1---3---3---3---3---3---3---3---3---|-1-------1---1---1-------1-------3----3---3---3----3---3---|
F#|-2----2----2----2---2---0---0---0---0---0---0---0---0---|-0---2---2---2---0---2---0---2---0----0---0---0----0---0---|
C#|-3----3----3----3---3---0---0---0---0---0---0---0---0---|-3-------3---3---3-------3-------0----0---0---0----0---0---|
G#|-3----3----3----3---3-----------------------------------|-3-------3---3---3-------3---------------------------------|
D#|-1----1----1----1---1---3---3---3---3---3---3---3---3---|-1-------1---1---1-------1-------3----3---3---3----3---3---|

D#|-1-----1-------------------------------|---------|---------------|---------------|
A#|-1-----1----1-------3-----3----3---0---|-1-------|-1------1------|-1-------------|
F#|-2-----2----2---0---0-----0----0---0---|-0-------|-0------0------|-0------%------|
C#|-3-----3----3---0---0-----0----0---0---|-2-------|-2------2------|-2------%------|
G#|-3-----3-------------------------------|-3-------|-3------3------|-3-------------|
D#|-1-----1------------3-----3----3-------|---------|---------------|---------------|

D#|---------|---------|---------|
A#|---------|---------|---------|
F#|-%-------|-%-------|-%-------|
C#|-%-------|-%-------|-%-------|
G#|---------|---------|---------|
D#|---------|---------|---------|
Guns N' Roses - Don't Cry
Guns N' Roses - Don't Cry.gp3