Guns N' Roses - Don't Damn Me

Guns N Roses



Title: Don't Damn Me
Album: 
Artist: 
Author: Guns N'Roses

Track 1: Guitar 1
D#|---------------------------|--------------------------------------------------|--------------------------------------------|
A#|---------------------------|--------------------------------------------------|--------------------------------------------|
F#|-%------%---------%--------|---------------------------------%-------%--------|----------------------------------%---------|
C#|-%------%---------%---11---|-11---11-------------------------%-------%---9----|-9----9---------------------------%---------|
G#|----------------------9----|-9----9----7------------9------------6-------7----|-7----7-----------------7----7---------4----|
D#|--------------0------------|----------------9---9--------9--------------------|-----------9----7---7---5----5---------2----|

D#|-----------------------------|-----------------------------------------|--------------------------------------------------|
A#|-----------------------------|-----------------------------------------|--------------------------------------------------|
F#|-----------------------------|-------------------------------%---------|---------------------------------%-------%--------|
C#|------------------------2----|-2---------6----4---------9----%----11---|-11---11-------------------------%-------%---9----|
G#|-4-----7-----4----------0----|-0----0----4----2---------7---------9----|-9----9----7------------9------------6-------7----|
D#|-2-----5-----2-----4---------|---------------------0-------------------|----------------9---9--------9--------------------|

D#|--------------------------------------------|-----------------------------|-----------------------------------------|
A#|--------------------------------------------|-----------------------------|-----------------------------------------|
F#|----------------------------------%---------|-----------------------------|-------------------------------%---------|
C#|-9----9---------------------------%---------|------------------------2----|-2---------6----4---------9----%----11---|
G#|-7----7-----------------7----7---------4----|-4-----7-----4----------0----|-0----0----4----2---------7---------9----|
D#|-----------9----7---7---5----5---------2----|-2-----5-----2-----4---------|---------------------0-------------------|

D#|--------------------------------------------------|--------------------------------------------|
A#|--------------------------------------------------|--------------------------------------------|
F#|---------------------------------%-------%--------|----------------------------------%---------|
C#|-11---11-------------------------%-------%---9----|-9----9---------------------------%---------|
G#|-9----9----7------------9------------6-------7----|-7----7-----------------7----7---------4----|
D#|----------------9---9--------9--------------------|-----------9----7---7---5----5---------2----|

D#|-----------------------------|-----------------------------------------|--------------------------------------------------|
A#|-----------------------------|-----------------------------------------|--------------------------------------------------|
F#|-----------------------------|-------------------------------%---------|---------------------------------%-------%--------|
C#|------------------------2----|-2---------6----4---------9----%----11---|-11---11-------------------------%-------%---9----|
G#|-4-----7-----4----------0----|-0----0----4----2---------7---------9----|-9----9----7------------9------------6-------7----|
D#|-2-----5-----2-----4---------|---------------------0-------------------|----------------9---9--------9--------------------|

D#|--------------------------------------------|-----------------------------|--------------------------------------------------|
A#|--------------------------------------------|-----------------------------|--------------------------------------------------|
F#|----------------------------------%---------|-----------------------------|-------------------------%-------%-------%--------|
C#|-9----9---------------------------%---------|------------------------2----|-2---------6----4--------%-------%-------%--------|
G#|-7----7-----------------7----7---------4----|-4-----7-----4----------0----|-0----0----4----2----2-------2-------2-------4----|
D#|-----------9----7---7---5----5---------2----|-2-----5-----2-----4---------|---------------------0-------0-------0-------2----|

D#|-----------------------------------------------------|--------------------------------------------------|
A#|-----------------------------------------------------|--------------------------------------------------|
F#|----------%------------%------------%-------%--------|----------%-----------------%-------%-------------|
C#|----------%------------%------------%-------%---2----|-2--------%---6----4--------%-------%---3----4----|
G#|-4------------6------------4--------------------0----|-0----0-------4----2----2-------2-----------------|
D#|-2----2------------2------------2-------4------------|------------------------0-------0-----------------|

D#|-----------------------------------------------------|--------------------------------------------------|
A#|-----------------------------------------------------|--------------------------------------------------|
F#|-%--------%------------%------------%-------%--------|----------%-----------------%-------%-------------|
C#|-%--------%------------%------------%-------%---2----|-2--------%---6----4--------%-------%---3----4----|
G#|--------------6------------4--------------------0----|-0----0-------4----2----2-------2-----------------|
D#|------2------------2------------2-------4------------|------------------------0-------0-----------------|

D#|-----------------------------------------------------|--------------------------------------------------|
A#|-----------------------------------------------------|--------------------------------------------------|
F#|-%--------%------------%------------%-------%--------|----------%-----------------%-------%-------------|
C#|-%--------%------------%------------%-------%---2----|-2--------%---6----4--------%-------%---3----4----|
G#|--------------6------------4--------------------0----|-0----0-------4----2----2-------2-----------------|
D#|------2------------2------------2-------4------------|------------------------0-------0-----------------|

D#|-----------------------------------------------------|--------------------------------------------------|
A#|-----------------------------------------------------|--------------------------------------------------|
F#|-%--------%------------%------------%-------%--------|-------------------------%-------%-------%--------|
C#|-%--------%------------%------------%-------%---2----|-2---------6----4--------%-------%-------%---11---|
G#|--------------6------------4--------------------0----|-0----0----4----2----2-------2-------2-------9----|
D#|------2------------2------------2-------4------------|---------------------0-------0-------0------------|

D#|--------------------------------------------------|--------------------------------------------|
A#|--------------------------------------------------|--------------------------------------------|
F#|---------------------------------%-------%--------|----------------------------------%---------|
C#|-11---11-------------------------%-------%---9----|-9----9---------------------------%---------|
G#|-9----9----7------------9------------6-------7----|-7----7-----------------7----7---------4----|
D#|----------------9---9--------9--------------------|-----------9----7---7---5----5---------2----|

D#|-----------------------------|-----------------------------------------|--------------------------------------------------|
A#|-----------------------------|-----------------------------------------|--------------------------------------------------|
F#|-----------------------------|-------------------------------%---------|---------------------------------%-------%--------|
C#|------------------------2----|-2---------6----4---------9----%----11---|-11---11-------------------------%-------%---9----|
G#|-4-----7-----4----------0----|-0----0----4----2---------7---------9----|-9----9----7------------9------------6-------7----|
D#|-2-----5-----2-----4---------|---------------------0-------------------|----------------9---9--------9--------------------|

D#|--------------------------------------------|-----------------------------|--------------------------------------------------|
A#|--------------------------------------------|-----------------------------|--------------------------------------------------|
F#|----------------------------------%---------|-----------------------------|-------------------------%-------%-------%--------|
C#|-9----9---------------------------%---------|------------------------2----|-2---------6----4--------%-------%-------%--------|
G#|-7----7-----------------7----7---------4----|-4-----7-----4----------0----|-0----0----4----2----2-------2-------2-------4----|
D#|-----------9----7---7---5----5---------2----|-2-----5-----2-----4---------|---------------------0-------0-------0-------2----|

D#|-----------------------------------------------------|--------------------------------------------------|
A#|-----------------------------------------------------|--------------------------------------------------|
F#|----------%------------%------------%-------%--------|----------%-----------------%-------%-------------|
C#|----------%------------%------------%-------%---2----|-2--------%---6----4--------%-------%---3----4----|
G#|-4------------6------------4--------------------0----|-0----0-------4----2----2-------2-----------------|
D#|-2----2------------2------------2-------4------------|------------------------0-------0-----------------|

D#|-----------------------------------------------------|--------------------------------------------------|
A#|-----------------------------------------------------|--------------------------------------------------|
F#|-%--------%------------%------------%-------%--------|----------%-----------------%-------%-------------|
C#|-%--------%------------%------------%-------%---2----|-2--------%---6----4--------%-------%---3----4----|
G#|--------------6------------4--------------------0----|-0----0-------4----2----2-------2-----------------|
D#|------2------------2------------2-------4------------|------------------------0-------0-----------------|

D#|-----------------------------------------------------|--------------------------------------------------|
A#|-----------------------------------------------------|--------------------------------------------------|
F#|-%--------%------------%------------%-------%--------|----------%-----------------%-------%-------------|
C#|-%--------%------------%------------%-------%---2----|-2--------%---6----4--------%-------%---3----4----|
G#|--------------6------------4--------------------0----|-0----0-------4----2----2-------2-----------------|
D#|------2------------2------------2-------4------------|------------------------0-------0-----------------|

D#|-----------------------------------------------------|-------------------------------|
A#|-----------------------------------------------------|-------------------------------|
F#|-%--------%------------%------------%-------%--------|----------%--------------------|
C#|-%--------%------------%------------%-------%---2----|-2--------%---6----4-----------|
G#|--------------6------------4--------------------0----|-0----0-------4----2----2------|
D#|------2------------2------------2-------4------------|------------------------0------|

D#|---------------------------------|-----------------------------------------|---------------------------------|
A#|---------------------------------|-----------------------------------------|---------------------------------|
F#|------7----7----7----7-----------|------7----7----7----7-------------------|------9----9----9----9-----9-----|
C#|------7----7----7----7-----------|------7----7----7----7-------------------|------9----9----9----9-----9-----|
G#|-7--------------------------7----|-7------------------------7----7----8----|-9-------------------------------|
D#|-5--------------------------5----|-5------------------------5----5----6----|-7-------------------------------|

D#|-------------------------|---------------------------------|-----------------------------------------|
A#|-------------------------|---------------------------------|-----------------------------------------|
F#|-------------------------|------7----7----7----7-----------|------7----7----7----7-------------------|
C#|-4-----------------------|------7----7----7----7-----------|------7----7----7----7-------------------|
G#|-2------2----2------7----|-7--------------------------7----|-7------------------------7----7----8----|
D#|--------0----0------5----|-5--------------------------5----|-5------------------------5----5----6----|

D#|----------------------------|-------------------------------------|--------------------------------------------------|
A#|----------------------------|-------------------------------------|--------------------------------------------------|
F#|------9----9----9----9------|-----------%---------------%---------|---------------------------------%-------%--------|
C#|------9----9----9----9------|-9----9----%-----6----6----%----11---|-11---11-------------------------%-------%---9----|
G#|-9--------------------------|-7----7----------4----4---------9----|-9----9----7------------9------------6-------7----|
D#|-7--------------------------|-------------------------------------|----------------9---9--------9--------------------|

D#|--------------------------------------------|-----------------------------|-----------------------------------------|
A#|--------------------------------------------|-----------------------------|-----------------------------------------|
F#|----------------------------------%---------|-----------------------------|-------------------------------%---------|
C#|-9----9---------------------------%---------|------------------------2----|-2---------6----4---------9----%----11---|
G#|-7----7-----------------7----7---------4----|-4-----7-----4----------0----|-0----0----4----2---------7---------9----|
D#|-----------9----7---7---5----5---------2----|-2-----5-----2-----4---------|---------------------0-------------------|

D#|--------------------------------------------------|--------------------------------------------|
A#|--------------------------------------------------|--------------------------------------------|
F#|---------------------------------%-------%--------|----------------------------------%---------|
C#|-11---11-------------------------%-------%---9----|-9----9---------------------------%---------|
G#|-9----9----7------------9------------6-------7----|-7----7-----------------7----7---------4----|
D#|----------------9---9--------9--------------------|-----------9----7---7---5----5---------2----|

D#|-----------------------------|--------------------------------------------------|
A#|-----------------------------|--------------------------------------------------|
F#|-----------------------------|-------------------------%-------%-------%--------|
C#|------------------------2----|-2---------6----4--------%-------%-------%--------|
G#|-4-----7-----4----------0----|-0----0----4----2----2-------2-------2-------4----|
D#|-2-----5-----2-----4---------|---------------------0-------0-------0-------2----|

D#|-----------------------------------------------------|--------------------------------------------------|
A#|-----------------------------------------------------|--------------------------------------------------|
F#|----------%------------%------------%-------%--------|----------%-----------------%-------%-------------|
C#|----------%------------%------------%-------%---2----|-2--------%---6----4--------%-------%---3----4----|
G#|-4------------6------------4--------------------0----|-0----0-------4----2----2-------2-----------------|
D#|-2----2------------2------------2-------4------------|------------------------0-------0-----------------|

D#|-----------------------------------------------------|--------------------------------------------------|
A#|-----------------------------------------------------|--------------------------------------------------|
F#|-%--------%------------%------------%-------%--------|----------%-----------------%-------%-------------|
C#|-%--------%------------%------------%-------%---2----|-2--------%---6----4--------%-------%---3----4----|
G#|--------------6------------4--------------------0----|-0----0-------4----2----2-------2-----------------|
D#|------2------------2------------2-------4------------|------------------------0-------0-----------------|

D#|-----------------------------------------------------|--------------------------------------------------|
A#|-----------------------------------------------------|--------------------------------------------------|
F#|-%--------%------------%------------%-------%--------|----------%-----------------%-------%-------------|
C#|-%--------%------------%------------%-------%---2----|-2--------%---6----4--------%-------%---3----4----|
G#|--------------6------------4--------------------0----|-0----0-------4----2----2-------2-----------------|
D#|------2------------2------------2-------4------------|------------------------0-------0-----------------|

D#|-----------------------------------------------------|-------------------------------|
A#|-----------------------------------------------------|-------------------------------|
F#|-%--------%------------%------------%-------%--------|----------%--------------------|
C#|-%--------%------------%------------%-------%---2----|-2--------%---6----4-----------|
G#|--------------6------------4--------------------0----|-0----0-------4----2----2------|
D#|------2------------2------------2-------4------------|------------------------0------|

D#|---------------------------------|-----------------------------------------|---------------------------------|
A#|---------------------------------|-----------------------------------------|---------------------------------|
F#|------7----7----7----7-----------|------7----7----7----7-------------------|------9----9----9----9-----9-----|
C#|------7----7----7----7-----------|------7----7----7----7-------------------|------9----9----9----9-----9-----|
G#|-7--------------------------7----|-7------------------------7----7----8----|-9-------------------------------|
D#|-5--------------------------5----|-5------------------------5----5----6----|-7-------------------------------|

D#|-------------------------|---------------------------------|-----------------------------------------|
A#|-------------------------|---------------------------------|-----------------------------------------|
F#|-------------------------|------7----7----7----7-----------|------7----7----7----7-------------------|
C#|-4-----------------------|------7----7----7----7-----------|------7----7----7----7-------------------|
G#|-2------2----2------7----|-7--------------------------7----|-7------------------------7----7----8----|
D#|--------0----0------5----|-5--------------------------5----|-5------------------------5----5----6----|

D#|----------------------------|-------------------------------------|--------------------------------------------------|
A#|----------------------------|-------------------------------------|--------------------------------------------------|
F#|------9----9----9----9------|-----------%---------------%---------|---------------------------------%-------%--------|
C#|------9----9----9----9------|-9----9----%-----6----6----%----11---|-11---11-------------------------%-------%---9----|
G#|-9--------------------------|-7----7----------4----4---------9----|-9----9----7------------9------------6-------7----|
D#|-7--------------------------|-------------------------------------|----------------9---9--------9--------------------|

D#|--------------------------------------------|-----------------------------|-----------------------------------------|
A#|--------------------------------------------|-----------------------------|-----------------------------------------|
F#|----------------------------------%---------|-----------------------------|-------------------------------%---------|
C#|-9----9---------------------------%---------|------------------------2----|-2---------6----4---------9----%----11---|
G#|-7----7-----------------7----7---------4----|-4-----7-----4----------0----|-0----0----4----2---------7---------9----|
D#|-----------9----7---7---5----5---------2----|-2-----5-----2-----4---------|---------------------0-------------------|

D#|--------------------------------------------------|--------------------------------------------|
A#|--------------------------------------------------|--------------------------------------------|
F#|---------------------------------%-------%--------|----------------------------------%---------|
C#|-11---11-------------------------%-------%---9----|-9----9---------------------------%---------|
G#|-9----9----7------------9------------6-------7----|-7----7-----------------7----7---------4----|
D#|----------------9---9--------9--------------------|-----------9----7---7---5----5---------2----|

D#|-----------------------------|--------------------------------------------------|
A#|-----------------------------|--------------------------------------------------|
F#|-----------------------------|-------------------------%-------%-------%--------|
C#|------------------------2----|-2---------6----4--------%-------%-------%--------|
G#|-4-----7-----4----------0----|-0----0----4----2----2-------2-------2-------4----|
D#|-2-----5-----2-----4---------|---------------------0-------0-------0-------2----|

D#|---------|------------------------|---------|-------------------------------------------|
A#|---------|------------------------|---------|----------------------------10-------------|
F#|-7-------|-2------2----2----2-----|-9-------|-9-----9--------%-------%---9----9----9----|
C#|-7-------|-2------2----2----2-----|-9-------|-9-----9--------%-------%---9----9----9----|
G#|-5-------|-0------0----0----0-----|-7-------|-7-----7--------------------7----7----7----|
D#|---------|------------------------|---------|------------0-------0----------------------|

D#|---------|------------------------|---------|------------------------|---------|
A#|---------|------------------------|---------|------------------------|---------|
F#|-7-------|-2------2----2----2-----|-9-------|-9------9----9----9-----|-7-------|
C#|-7-------|-2------2----2----2-----|-9-------|-9------9----9----9-----|-7-------|
G#|-5-------|-0------0----0----0-----|-7-------|-7------7----7----7-----|-5-------|
D#|---------|------------------------|---------|------------------------|---------|

D#|----------------------------|---------|---------------------------------------|---------|
A#|----------------------------|---------|---------------------------------------|---------|
F#|-2------2----2----2----2----|-9-------|-9----9--------%-------%---9-----9-----|-7-------|
C#|-2------2----2----2----2----|-9-------|-9----9--------%-------%---9-----9-----|-7-------|
G#|-0------0----0----0----0----|-7-------|-7----7--------------------7-----7-----|-5-------|
D#|----------------------------|---------|-----------0-------0-------------------|---------|

D#|----------------------------|---------|----------------------------|---------|--------------------|
A#|----------------------------|---------|----------------------------|---------|--------------------|
F#|-2------2----2----2----2----|-9-------|-9------9----9----9----9----|-7-------|-2------2-----2-----|
C#|-2------2----2----2----2----|-9-------|-9------9----9----9----9----|-7-------|-2------2-----2-----|
G#|-0------0----0----0----0----|-7-------|-7------7----7----7----7----|-5-------|-0------0-----0-----|
D#|----------------------------|---------|----------------------------|---------|--------------------|

D#|---------------|-----------------------------------------------|---------|---------|
A#|---------------|-----------------------------------------------|---------|---------|
F#|-9------9------|-9----9--------%-------%---9----9----9----9----|-7-------|-2-------|
C#|-9------9------|-9----9--------%-------%---9----9----9----9----|-7-------|-2-------|
G#|-7------7------|-7----7--------------------7----7----7----7----|-5-------|-0-------|
D#|---------------|-----------0-------0---------------------------|---------|---------|

D#|-----------------------------------------|-----------------------------------------|
A#|-----------------------------------------|-----------------------------------------|
F#|-9----9----9----9----9----9----9----9----|-9----9----9----9----9----9----9----11---|
C#|-9----9----9----9----9----9----9----9----|-9----9----9----9----9----9----9----11---|
G#|-7----7----7----7----7----7----7----7----|-7----7----7----7----7----7----7----9----|
D#|-----------------------------------------|-----------------------------------------|

D#|--------------------------------------------------|--------------------------------------------|
A#|--------------------------------------------------|--------------------------------------------|
F#|-11------------------------------%-------%--------|----------------------------------%---------|
C#|-11---11-------------------------%-------%---9----|-9----9---------------------------%---------|
G#|-9----9----7------------9------------6-------7----|-7----7-----------------7----7---------4----|
D#|----------------9---9--------9--------------------|-----------9----7---7---5----5---------2----|

D#|-----------------------------|-----------------------------------------|--------------------------------------------------|
A#|-----------------------------|-----------------------------------------|--------------------------------------------------|
F#|-----------------------------|-------------------------------%---------|---------------------------------%-------%--------|
C#|------------------------2----|-2---------6----4---------9----%----11---|-11---11-------------------------%-------%---9----|
G#|-4-----7-----4----------0----|-0----0----4----2---------7---------9----|-9----9----7------------9------------6-------7----|
D#|-2-----5-----2-----4---------|---------------------0-------------------|----------------9---9--------9--------------------|

D#|--------------------------------------------|-----------------------------|-----------------------------------------|
A#|--------------------------------------------|-----------------------------|-----------------------------------------|
F#|----------------------------------%---------|-----------------------------|-------------------------------%---------|
C#|-9----9---------------------------%---------|------------------------2----|-2---------6----4---------9----%----11---|
G#|-7----7-----------------7----7---------4----|-4-----7-----4----------0----|-0----0----4----2---------7---------9----|
D#|-----------9----7---7---5----5---------2----|-2-----5-----2-----4---------|---------------------0-------------------|

D#|--------------------------------------------------|--------------------------------------------|
A#|--------------------------------------------------|--------------------------------------------|
F#|---------------------------------%-------%--------|----------------------------------%---------|
C#|-11---11-------------------------%-------%---9----|-9----9---------------------------%---------|
G#|-9----9----7------------9------------6-------7----|-7----7-----------------7----7---------4----|
D#|----------------9---9--------9--------------------|-----------9----7---7---5----5---------2----|

D#|-----------------------------|-----------------------------------------|--------------------------------------------------|
A#|-----------------------------|-----------------------------------------|--------------------------------------------------|
F#|-----------------------------|-------------------------------%---------|---------------------------------%-------%--------|
C#|------------------------2----|-2---------6----4---------9----%----11---|-11---11-------------------------%-------%---9----|
G#|-4-----7-----4----------0----|-0----0----4----2---------7---------9----|-9----9----7------------9------------6-------7----|
D#|-2-----5-----2-----4---------|---------------------0-------------------|----------------9---9--------9--------------------|

D#|--------------------------------------------|-----------------------------|--------------------------------------------------|
A#|--------------------------------------------|-----------------------------|--------------------------------------------------|
F#|----------------------------------%---------|-----------------------------|-------------------------%-------%-------%--------|
C#|-9----9---------------------------%---------|------------------------2----|-2---------6----4--------%-------%-------%--------|
G#|-7----7-----------------7----7---------4----|-4-----7-----4----------0----|-0----0----4----2----2-------2-------2-------4----|
D#|-----------9----7---7---5----5---------2----|-2-----5-----2-----4---------|---------------------0-------0-------0-------2----|

D#|-----------------------------------------------------|--------------------------------------------------|
A#|-----------------------------------------------------|--------------------------------------------------|
F#|----------%------------%------------%-------%--------|----------%-----------------%-------%-------------|
C#|----------%------------%------------%-------%---2----|-2--------%---6----4--------%-------%---3----4----|
G#|-4------------6------------4--------------------0----|-0----0-------4----2----2-------2-----------------|
D#|-2----2------------2------------2-------4------------|------------------------0-------0-----------------|

D#|-----------------------------------------------------|--------------------------------------------------|
A#|-----------------------------------------------------|--------------------------------------------------|
F#|-%--------%------------%------------%-------%--------|----------%-----------------%-------%-------------|
C#|-%--------%------------%------------%-------%---2----|-2--------%---6----4--------%-------%---3----4----|
G#|--------------6------------4--------------------0----|-0----0-------4----2----2-------2-----------------|
D#|------2------------2------------2-------4------------|------------------------0-------0-----------------|

D#|-----------------------------------------------------|--------------------------------------------------|
A#|-----------------------------------------------------|--------------------------------------------------|
F#|-%--------%------------%------------%-------%--------|----------%-----------------%-------%-------------|
C#|-%--------%------------%------------%-------%---2----|-2--------%---6----4--------%-------%---3----4----|
G#|--------------6------------4--------------------0----|-0----0-------4----2----2-------2-----------------|
D#|------2------------2------------2-------4------------|------------------------0-------0-----------------|

D#|-----------------------------------------------------|--------------------------------------------------|
A#|-----------------------------------------------------|--------------------------------------------------|
F#|-%--------%------------%------------%-------%--------|-------------------------%-------%-------%--------|
C#|-%--------%------------%------------%-------%---2----|-2---------6----4--------%-------%-------%---11---|
G#|--------------6------------4--------------------0----|-0----0----4----2----2-------2-------2-------9----|
D#|------2------------2------------2-------4------------|---------------------0-------0-------0------------|

D#|------------------------|--------------------|---------------------------------------|
A#|------------------------|--------------------|---------------------------------------|
F#|-----------%-----%------|-%------------------|-----------------%-----------------%---|
C#|-11---11---%-----%------|-%------------------|-----------------%-----------------%---|
G#|-9----9-----------------|---------------4----|-4-----4-------------4----4------------|
D#|------------------------|--------9------2----|-2-----2-----2-------2----2----0-------|

D#|---------------------------------------------|---------------------------------------------|
A#|---------------------------------------------|---------------------------------------------|
F#|-----------%-------%-------------%-------%---|-----------%-------%-------------%-------%---|
C#|-----------%-------%---2---------%-------%---|-----------%-------%-------------%-------%---|
G#|-2---------------------0---------------------|-4---------------------4---------------------|
D#|-0-----0-------0-------------2-------0-------|-2-----2-------2-------2-----2-------0-------|

D#|--------------------|-----------------------------------------------------------|
A#|--------------------|-----------------------------------------------------------|
F#|--------------------|----------%-------%-------%-------%------------%-------%---|
C#|--------------------|----------%-------%-------%-------%------------%-------%---|
G#|-2------2------4----|-4------------------------------------4--------------------|
D#|-0------0------2----|-2----2-------2-------2-------2-------2----2-------0-------|

D#|---------------------------------|----------------------------------------------|
A#|---------------------------------|----------------------------------------------|
F#|--------%--------------%---------|-----------%-------%-----------------%--------|
C#|--------%----2----2----%---------|-----------%-------%-----------------%--------|
G#|-2-----------0----0---------4----|-4---------------------4----4------------4----|
D#|-0--------------------------2----|-2-----2-------2-------2----2----2-------2----|

D#|-----------------------------|---------------------------------|-----------------------------------|
A#|-----------------------------|---------------------------------|-----------------------------------|
F#|-----------------------------|-----------------------%---------|-----------%-------%---------------|
C#|-2-----2----------------7----|-7-----7-----7----7----%----2----|-2---------%-------%---2-----------|
G#|-0-----0---------2------5----|-5-----5-----5----5---------0----|-0-----0-------0-------0------4----|
D#|------------0----0-----------|---------------------------------|------------------------------2----|

D#|--------------------------------|-------------------------------------|------------------------------------|
A#|--------------------------------|-------------------------------------|------------------------------------|
F#|----------------------------%---|-------------------------------------|------------------------------------|
C#|----------------------------%---|--------------------------------7----|-7-----7------------7----7-----7----|
G#|-4-----4---------4--------------|-4-----4----4----4----2----2----5----|-5-----5----5---5---5----5-----7----|
D#|-2-----2-----2---2------2-------|-2-----2----2----2----0----0---------|-------------------------------5----|

D#|-------------------------------------|-----------------------------------|-------------------------------------------|
A#|-------------------------------------|-----------------------------------|-------------------------------------------|
F#|---------------------------%---------|-----------%-------%---------------|-----------%-------%-----------------------|
C#|-7----7----7----7----7-----%---------|-----------%-------%---------------|-----------%-------%------------------7----|
G#|-7----7----7----7----7----------4----|-4---------------------4------4----|-4---------------------4----2----2----5----|
D#|-5----5----5----5----5----------2----|-2-----2-------2-------2------2----|-2-----2-------2-------2----0----0---------|

D#|------------------------------------|------------------------------------|-----------------------------------|
A#|------------------------------------|------------------------------------|-----------------------------------|
F#|------------------------------------|--------------------------%---------|-----------%-------%---------------|
C#|-7-----7------------7----7-----7----|-7-----7------------7-----%---------|-----------%-------%---------------|
G#|-5-----5----5---5---5----5-----7----|-7-----7------------7----------4----|-4---------------------4------4----|
D#|-------------------------------5----|-5-----5----5---5---5----------2----|-2-----2-------2-------2------2----|

D#|-------------------------------------------|-------------------------------------------|
A#|-------------------------------------------|-------------------------------------------|
F#|-----------%-------%-----------------------|-----------%---------------------%---------|
C#|-----------%-------%------------------7----|-7---------%-----------7----7----%---------|
G#|-4---------------------4----4----4----5----|-5-----5-------5---5---5----5---------2----|
D#|-2-----2-------2-------2-------------------|--------------------------------------0----|

D#|----------------------------------------|-------------------------------------|-------------------------------------|
A#|----------------------------------------|-------------------------------------|-------------------------------------|
F#|------------------------------%---------|-------------------------------------|---------------------------%---------|
C#|------------------------------%----6----|-6-----6----6----6----6----6----9----|-9----9----9-----6----6----%----11---|
G#|-2-----2------------2----2---------4----|-4-----4----4----4----4----4----7----|-7----7----7-----4----4---------9----|
D#|-0-----0----0---0---0----0--------------|-------------------------------------|-------------------------------------|

D#|---------|---------|--------------------|-------------12-----|---------|---------|
A#|---------|---------|--------------------|--------------------|-12------|---------|
F#|---------|---------|-------%-----%------|-%------%-----------|---------|-%-------|
C#|-11------|-11------|-------%-----%------|-%------%-----------|---------|-%-------|
G#|-9-------|-9-------|-9------------------|--------------------|---------|---------|
D#|---------|---------|--------------------|--------------------|---------|---------|

D#|-------7---9---7----5--------5--------7----|-5-----4-----2-----4-----2-----4-----|
A#|-------------------------------------------|-------------------------------------|
F#|-%-----------------------%--------%--------|-------------------------------------|
C#|-%-----------------------%--------%--------|-------------------------------------|
G#|-------------------------------------------|-------------------------------------|
D#|-------------------------------------------|-------------------------------------|

D#|-4----2------2------|-2-------|---------|---------------------------|-14-----------------|
A#|--------------------|---------|---------|--------12--14--14---14----|------14-----14-----|
F#|--------------------|---------|-%-------|-%-------------------------|--------------------|
C#|--------------------|---------|-%-------|-%-------------------------|--------------------|
G#|--------------------|---------|---------|---------------------------|--------------------|
D#|--------------------|---------|---------|---------------------------|--------------------|

D#|---------|-14---------------14-----|------------------------|--------------------------------------------------|
A#|-14------|-------14----14----------|-14-----14---14---------|--------------------------------------------------|
F#|---------|-------------------------|------------------------|---------------------------------%-------%--------|
C#|---------|-------------------------|-------------------11---|-11---11-------------------------%-------%---9----|
G#|---------|-------------------------|-------------------9----|-9----9----7------------9------------6-------7----|
D#|---------|-------------------------|------------------------|----------------9---9--------9--------------------|

D#|--------------------------------------------|-----------------------------|-----------------------------------------|
A#|--------------------------------------------|-----------------------------|-----------------------------------------|
F#|----------------------------------%---------|-----------------------------|-------------------------------%---------|
C#|-9----9---------------------------%---------|------------------------2----|-2---------6----4---------9----%----11---|
G#|-7----7-----------------7----7---------4----|-4-----7-----4----------0----|-0----0----4----2---------7---------9----|
D#|-----------9----7---7---5----5---------2----|-2-----5-----2-----4---------|---------------------0-------------------|

D#|--------------------------------------------------|--------------------------------------------|
A#|--------------------------------------------------|--------------------------------------------|
F#|---------------------------------%-------%--------|----------------------------------%---------|
C#|-11---11-------------------------%-------%---9----|-9----9---------------------------%---------|
G#|-9----9----7------------9------------6-------7----|-7----7-----------------7----7---------4----|
D#|----------------9---9--------9--------------------|-----------9----7---7---5----5---------2----|

D#|-----------------------------|-----------------------------------------|--------------------------------------------------|
A#|-----------------------------|-----------------------------------------|--------------------------------------------------|
F#|-----------------------------|-------------------------------%---------|---------------------------------%-------%--------|
C#|------------------------2----|-2---------6----4---------9----%----11---|-11---11-------------------------%-------%---9----|
G#|-4-----7-----4----------0----|-0----0----4----2---------7---------9----|-9----9----7------------9------------6-------7----|
D#|-2-----5-----2-----4---------|---------------------0-------------------|----------------9---9--------9--------------------|

D#|--------------------------------------------|-----------------------------|-----------------------------------------|
A#|--------------------------------------------|-----------------------------|-----------------------------------------|
F#|----------------------------------%---------|-----------------------------|-------------------------------%---------|
C#|-9----9---------------------------%---------|------------------------2----|-2---------6----4---------9----%----11---|
G#|-7----7-----------------7----7---------4----|-4-----7-----4----------0----|-0----0----4----2---------7---------9----|
D#|-----------9----7---7---5----5---------2----|-2-----5-----2-----4---------|---------------------0-------------------|

D#|--------------------------------------------------|--------------------------------------------|
A#|--------------------------------------------------|--------------------------------------------|
F#|---------------------------------%-------%--------|----------------------------------%---------|
C#|-11---11-------------------------%-------%---9----|-9----9---------------------------%---------|
G#|-9----9----7------------9------------6-------7----|-7----7-----------------7----7---------4----|
D#|----------------9---9--------9--------------------|-----------9----7---7---5----5---------2----|

D#|-----------------------------|----------------------------|----------------------------------|
A#|-----------------------------|----------------------------|----------------------------------|
F#|-----------------------------|----------------------------|----------------------------------|
C#|------------------------2----|-2---------6----4-----------|----------------------------------|
G#|-4-----7-----4----------0----|-0----0----4----2----2------|-7--9--9---9----9-----7-----------|
D#|-2-----5-----2-----4---------|---------------------0------|----------------------------9-----|

D#|-----------------------------|------------------------|-----------------------------|
A#|-----------------------------|------------------------|-----------------------------|
F#|-----------------------------|------------------------|-----------------------------|
C#|-----------------------------|------------------------|-----------------------------|
G#|-9-----4-----6---6-----7-----|-7------7-----7----7----|-----------------------------|
D#|-----------------------------|------------------------|-5--7--7---7-----7------7----|

D#|---------------------------------|-0-------|-0------0-----0---------|--------------------------------------------|
A#|---------------------------------|-0-------|-0------0-----0---------|--------------------------------------------|
F#|---------------------------------|-1-------|-1------1-----1----11---|-11---11---9---------11--9-------------9----|
C#|---------------------------------|-2-------|-2------2-----2---------|----------------11-----------10---11--------|
G#|---------------------------------|-2-------|-2------2-----2---------|--------------------------------------------|
D#|-3--5--5---5----5------5----0----|-0-------|-0------0-----0---------|--------------------------------------------|

D#|----------------------------------------------|----------------------------|---------|
A#|----------------------------------------------|---------------------9------|-9-------|
F#|-9--------------------------------------------|----------------9-----------|---------|
C#|------11---10---9----7----9----7----9----7----|-5--------------------------|---------|
G#|----------------------------------------------|------7----7----------------|---------|
D#|----------------------------------------------|----------------------------|---------|

D#|-9------12--9-----12--9-----|-9------9------|------------------------|
A#|----------------------------|---------------|------------------------|
F#|----------------------------|---------------|-----------------%------|
C#|----------------------------|---------------|-11----11---11---%------|
G#|----------------------------|---------------|-9-----9----9-----------|
D#|----------------------------|---------------|-9-----9----9-----------|
Guns N' Roses - Don't Damn Me
Guns N' Roses - Don't Damn Me.gp3