Guns N' Roses - Dust 'N Bones

Guns N' Roses - Dust 'N Bones

Guns N Roses



Title: Dust 'N Bones
Album: 
Artist: 
Author: Guns N' Roses 

Track 1: Guitar 1
E|---------|-10------|-10------|-10------|---------|--------------0-----|-------0------0---------|
B|---------|---------|---------|---------|---------|--------------0-----|-------0------0----3----|
G|-%-------|---------|---------|---------|-%-------|-%------%-----------|------------------------|
D|-%-------|---------|---------|---------|-%-------|-%------%-----------|------------------------|
A|---------|---------|---------|---------|---------|--------------------|------------------------|
E|---------|---------|---------|---------|---------|--------------------|-0----------------------|

E|-------3-----0----------0----|-0--------------------------------------------|-------------------------------------------------------------|
B|-3-----------------3---------|------0----0----0----0-------------------0----|-3---------0-------------------------------------------------|
G|-----------------------------|--------------------------2----0----2---------|------2---------2----2----0----2----0---------0--------------|
D|-----------------------------|----------------------------------------------|-----------------------------------------2---------2----0----|
A|-----------------------------|----------------------------------------------|-------------------------------------------------------------|
E|-----------------------------|----------------------------------------------|-------------------------------------------------------------|

E|------------------------|-------------------------|------------------------|-------------------------|
B|------------------------|-------------------------|------------------------|-------------------------|
G|------%-----------------|-------------------------|------%-----------------|-------------------------|
D|------%----7------5-----|-7----5-----5------------|------%----7------5-----|-7----5------------------|
A|------------------------|------------------7------|------------------------|------------5-----7------|
E|-0----------------------|-------------------------|-0----------------------|-------------------------|

E|---------------------------------|--------------------|-------0----------0----------|
B|---------------------------------|--------------------|-------0-----3---------------|
G|---------------------------------|--------------------|------------------------2----|
D|-5----7------7----7----5---------|-5------------------|-----------------------------|
A|----------------------------7----|--------5-----5-----|-----------------------------|
E|---------------------------------|--------------------|-0---------------------------|

E|-0----------0--------------------------|------------------------|-------------------------|
B|-------3----------0--------------------|------------------------|-------------------------|
G|-----------------------2----2---0---0--|------%-----------------|-------------------------|
D|---------------------------------------|------%----7------5-----|-7----5-----5------------|
A|---------------------------------------|------------------------|------------------7------|
E|---------------------------------------|-0----------------------|-------------------------|

E|------------------------|-------------------------|---------------------------------|
B|------------------------|-------------------------|---------------------------------|
G|------%-----------------|-------------------------|---------------------------------|
D|------%----7------5-----|-7----5------------------|-5----7------7----7----5---------|
A|------------------------|------------5-----7------|----------------------------7----|
E|-0----------------------|-------------------------|---------------------------------|

E|--------------------|-------0----------0----------|-0----------0--------------------------|
B|--------------------|-------0-----3---------------|-------3----------0--------------------|
G|--------------------|------------------------2----|-----------------------2----2---0---0--|
D|-5------------------|-----------------------------|---------------------------------------|
A|--------5-----5-----|-----------------------------|---------------------------------------|
E|--------------------|-0---------------------------|---------------------------------------|

E|--------0-----2-----|-3-----2-----0-----------|-------0----------0----------|-0----------0--------------------------|
B|-3------3-----3-----|-3-----3-----3-----3-----|-------0-----3---------------|-------3----------0--------------------|
G|-2------2-----2-----|-2-----2-----2-----2-----|------------------------2----|-----------------------2----2---0---0--|
D|-0------0-----0-----|-0-----0-----0-----0-----|-----------------------------|---------------------------------------|
A|--------------------|-------------------------|-----------------------------|---------------------------------------|
E|--------------------|-------------------------|-0---------------------------|---------------------------------------|

E|--------0-----2-----|-3-----2-----0-----------|-------0----------0----------|-0----------0--------------------------|
B|-3------3-----3-----|-3-----3-----3-----3-----|-------0-----3---------------|-------3----------0--------------------|
G|-2------2-----2-----|-2-----2-----2-----2-----|------------------------2----|-----------------------2----2---0---0--|
D|-0------0-----0-----|-0-----0-----0-----0-----|-----------------------------|---------------------------------------|
A|--------------------|-------------------------|-----------------------------|---------------------------------------|
E|--------------------|-------------------------|-0---------------------------|---------------------------------------|

E|--------0-----2-----|-3-----2-----0-----------|---------|---------|-----------------------------------------|
B|-3------3-----3-----|-3-----3-----3-----3-----|---------|---------|-----------------------------------------|
G|-2------2-----2-----|-2-----2-----2-----2-----|-5-------|-5-------|-4----5----4----5----4----5----4----5----|
D|-0------0-----0-----|-0-----0-----0-----0-----|-5-------|-5-------|-4---------4---------4---------4---------|
A|--------------------|-------------------------|-3-------|-3-------|-2---------2---------2---------2---------|
E|--------------------|-------------------------|---------|---------|-----------------------------------------|

E|-----------------------------------------|-------------------------|-------------------------|
B|-----------------------------------------|-------------------------|-------------------------|
G|-4----5----4----5----4----5----4----5----|-------------------------|-------------------------|
D|-4---------4---------4---------4---------|-4-----------------------|-4-----------------------|
A|-2---------2---------2---------2---------|-2-----0-----------------|-2-----0-----------------|
E|-----------------------------------------|-------------3-----2-----|-------------3-----2-----|

E|-------------------|---------|---------------|------0---------------------------------|
B|--------------12---|-12------|-------2-------|-2---------2----------------------------|
G|--------------12---|-12------|-%-----2-------|-2--------------2-----2---0---2----X----|
D|---------14--------|---------|-%-------------|----------------------------------------|
A|-------------------|---------|---------------|----------------------------------------|
E|-0-----------------|---------|---------------|----------------------------------------|

E|-----------------------------------------|------------------------------------------|
B|------2----------------------------------|------------------------------------------|
G|-2----2----2----0----2----0----2----0----|-2-----2----0----2----0-------------------|
D|-----------------------------------------|---------------------------2----0---------|
A|-----------------------------------------|-------------------------------------2----|
E|-----------------------------------------|------------------------------------------|

E|------------------------|-------------------------|------------------------|-------------------------|
B|------------------------|-------------------------|------------------------|-------------------------|
G|------%-----------------|-------------------------|------%-----------------|-------------------------|
D|------%----7------5-----|-7----5-----5------------|------%----7------5-----|-7----5------------------|
A|------------------------|------------------7------|------------------------|------------5-----7------|
E|-0----------------------|-------------------------|-0----------------------|-------------------------|

E|---------------------------------|--------------------|-------0----------0----------|
B|---------------------------------|--------------------|-------0-----3---------------|
G|---------------------------------|--------------------|------------------------2----|
D|-5----7------7----7----5---------|-5------------------|-----------------------------|
A|----------------------------7----|--------5-----5-----|-----------------------------|
E|---------------------------------|--------------------|-0---------------------------|

E|-0----------0--------------------------|------------------------|-------------------------|
B|-------3----------0--------------------|------------------------|-------------------------|
G|-----------------------2----2---0---0--|------%-----------------|-------------------------|
D|---------------------------------------|------%----7------5-----|-7----5-----5------------|
A|---------------------------------------|------------------------|------------------7------|
E|---------------------------------------|-0----------------------|-------------------------|

E|------------------------|-------------------------|---------------------------------|
B|------------------------|-------------------------|---------------------------------|
G|------%-----------------|-------------------------|---------------------------------|
D|------%----7------5-----|-7----5------------------|-5----7------7----7----5---------|
A|------------------------|------------5-----7------|----------------------------7----|
E|-0----------------------|-------------------------|---------------------------------|

E|--------------------|-------0----------0----------|-0----------0--------------------------|
B|--------------------|-------0-----3---------------|-------3----------0--------------------|
G|--------------------|------------------------2----|-----------------------2----2---0---0--|
D|-5------------------|-----------------------------|---------------------------------------|
A|--------5-----5-----|-----------------------------|---------------------------------------|
E|--------------------|-0---------------------------|---------------------------------------|

E|--------0-----2-----|-3-----2-----0-----------|-------0----------0----------|-0----------0--------------------------|
B|-3------3-----3-----|-3-----3-----3-----3-----|-------0-----3---------------|-------3----------0--------------------|
G|-2------2-----2-----|-2-----2-----2-----2-----|------------------------2----|-----------------------2----2---0---0--|
D|-0------0-----0-----|-0-----0-----0-----0-----|-----------------------------|---------------------------------------|
A|--------------------|-------------------------|-----------------------------|---------------------------------------|
E|--------------------|-------------------------|-0---------------------------|---------------------------------------|

E|--------0-----2-----|-3-----2-----0-----------|-------0----------0----------|-0----------0--------------------------|
B|-3------3-----3-----|-3-----3-----3-----3-----|-------0-----3---------------|-------3----------0--------------------|
G|-2------2-----2-----|-2-----2-----2-----2-----|------------------------2----|-----------------------2----2---0---0--|
D|-0------0-----0-----|-0-----0-----0-----0-----|-----------------------------|---------------------------------------|
A|--------------------|-------------------------|-----------------------------|---------------------------------------|
E|--------------------|-------------------------|-0---------------------------|---------------------------------------|

E|--------0-----2-----|-3-----2-----0-----------|---------|---------|-----------------------------------------|
B|-3------3-----3-----|-3-----3-----3-----3-----|---------|---------|-----------------------------------------|
G|-2------2-----2-----|-2-----2-----2-----2-----|-5-------|-5-------|-4----5----4----5----4----5----4----5----|
D|-0------0-----0-----|-0-----0-----0-----0-----|-5-------|-5-------|-4---------4---------4---------4---------|
A|--------------------|-------------------------|-3-------|-3-------|-2---------2---------2---------2---------|
E|--------------------|-------------------------|---------|---------|-----------------------------------------|

E|-----------------------------------------|-------------------------|-------------------------|
B|-----------------------------------------|-------------------------|-------------------------|
G|-4----5----4----5----4----5----4----5----|-------------------------|-------------------------|
D|-4---------4---------4---------4---------|-4-----------------------|-4-----------------------|
A|-2---------2---------2---------2---------|-2-----0-----------------|-2-----0-----------------|
E|-----------------------------------------|-------------3-----2-----|-------------3-----2-----|

E|---------|---------|---------|---------|---------|---------|---------|---------|-----------------------------------------|
B|---------|---------|---------|---------|---------|---------|---------|---------|-----------------------------------------|
G|---------|---------|---------|---------|---------|---------|---------|-%-------|-----------------------------------------|
D|-2-------|-2-------|-2-------|-2-------|---------|---------|---------|-%-------|-4---------4---------4---------4---------|
A|-2-------|-2-------|-2-------|-2-------|---------|---------|---------|---------|-2----0----2----0----2----0----2----0----|
E|-0-------|-0-------|-0-------|-0-------|-0-------|-0-------|-0-------|---------|-----------------------------------------|

E|------------------------|-----------------------------------------|------------------------|
B|------------------------|-----------------------------------------|------------------------|
G|------------------------|-----------------------------------------|------------------------|
D|-7----7-----2------2----|-4---------4---------4---------4---------|-7----9-----2------2----|
A|-5----5-----0------0----|-2----0----2----0----2----0----2----0----|-5----7-----0------0----|
E|------------------------|-----------------------------------------|------------------------|

E|-----------------------------------------|------------------------|-----------------------------------------|
B|-----------------------------------------|------------------------|-----------------------------------------|
G|-----------------------------------------|------------------------|-----------------------------------------|
D|-4---------4---------4---------4---------|-7----7-----2------2----|-4---------4---------4---------4---------|
A|-2----0----2----0----2----0----2----0----|-5----5-----0------0----|-2----0----2----0----2----0----2----0----|
E|-----------------------------------------|------------------------|-----------------------------------------|

E|------------------------|-----------------------------------------|------------------------|
B|------------------------|-----------------------------------------|------------------------|
G|------------------------|-----------------------------------------|------------------------|
D|-7----9-----2------2----|-4---------4---------4---------4---------|-7----7-----2------2----|
A|-5----7-----0------0----|-2----0----2----0----2----0----2----0----|-5----5-----0------0----|
E|------------------------|-----------------------------------------|------------------------|

E|-----------------------------------------|------------------------|-----------------------------------------|
B|-----------------------------------------|------------------------|-----------------------------------------|
G|-----------------------------------------|------------------------|-----------------------------------------|
D|-4---------4---------4---------4---------|-7----9-----2------2----|-4---------4---------4---------4---------|
A|-2----0----2----0----2----0----2----0----|-5----7-----0------0----|-2----0----2----0----2----0----2----0----|
E|-----------------------------------------|------------------------|-----------------------------------------|

E|------------------------|-----------------------------------------|-----------------|
B|------------------------|-----------------------------------------|-----------------|
G|------------------------|-----------------------------------------|-----------------|
D|-7----7-----2------2----|-4---------4---------4---------4---------|-7----9-----2----|
A|-5----5-----0------0----|-2----0----2----0----2----0----2----0----|-5----7-----0----|
E|------------------------|-----------------------------------------|-----------------|

E|---------|---------|---------------------------------|---------------------------------|
B|---------|---------|---------------------------------|---------------------------------|
G|---------|---------|---------------------------------|---------------------------------|
D|-2-------|-2-------|---------------------------------|-5-------------------------------|
A|-0-------|-0-------|-----------7------7----5---------|--------7----5---------5----7----|
E|---------|---------|-0----0---------------------7----|------------------7--------------|

E|---------------------------------|-----------------------------------------------------|
B|---------------------------------|-----------------------------------------------------|
G|---------------------------------|-----------------------------------------------------|
D|---------------------------------|-5----6----------------------------------------------|
A|-----------7------7----5---------|-----------7----5---------------5--------------------|
E|-0----0---------------------7----|---------------------5--7---7--------7--5---5---3----|

E|------------------------|-------------------------|------------------------|-------------------------|
B|------------------------|-------------------------|------------------------|-------------------------|
G|------%-----------------|-------------------------|------%-----------------|-------------------------|
D|------%----7------5-----|-7----5-----5------------|------%----7------5-----|-7----5------------------|
A|------------------------|------------------7------|------------------------|------------5-----7------|
E|-0----------------------|-------------------------|-0----------------------|-------------------------|

E|---------------------------------|--------------------|-------0----------0----------|
B|---------------------------------|--------------------|-------0-----3---------------|
G|---------------------------------|--------------------|------------------------2----|
D|-5----7------7----7----5---------|-5------------------|-----------------------------|
A|----------------------------7----|--------5-----5-----|-----------------------------|
E|---------------------------------|--------------------|-0---------------------------|

E|-0----------0--------------------------|------------------------|-------------------------|
B|-------3----------0--------------------|------------------------|-------------------------|
G|-----------------------2----2---0---0--|------%-----------------|-------------------------|
D|---------------------------------------|------%----7------5-----|-7----5-----5------------|
A|---------------------------------------|------------------------|------------------7------|
E|---------------------------------------|-0----------------------|-------------------------|

E|------------------------|-------------------------|---------------------------------|
B|------------------------|-------------------------|---------------------------------|
G|------%-----------------|-------------------------|---------------------------------|
D|------%----7------5-----|-7----5------------------|-5----7------7----7----5---------|
A|------------------------|------------5-----7------|----------------------------7----|
E|-0----------------------|-------------------------|---------------------------------|

E|--------------------|---------------------------------|--------------------|---------------------------------|
B|--------------------|---------------------------------|--------------------|---------------------------------|
G|--------------------|---------------------------------|--------------------|---------------------------------|
D|-5------------------|-5----7------7----7----5---------|-5------------------|-5----7------7----7----5---------|
A|--------5-----5-----|----------------------------7----|--------5-----5-----|----------------------------7----|
E|--------------------|---------------------------------|--------------------|---------------------------------|

E|--------------------|---------------------------------|-----------------------------|
B|--------------------|---------------------------------|-----------------------------|
G|--------------------|---------------------------------|-----------------------------|
D|-5------------------|---------------------------------|-----------------------5-----|
A|--------5-----5-----|---------------------------------|-------5-----7---------------|
E|--------------------|-0-----3-----5----0----6----0----|-7----------------0----------|

E|-------------------------|-------------------------|-------------------------------------|
B|-------------------------|-------------14---14-----|-X----X----14---14---14---14----12---|
G|-------------------7-----|-9-----12----14---14-----|-X----X----14---14---14---14----12---|
D|-7-----8-----9-----------|-------------------------|-------------------------------------|
A|-------------------------|-------------------------|-------------------------------------|
E|-------------------------|-------------------------|-------------------------------------|

E|----------------------------|-------------------------------------|----------------------------|
B|-12-------------------------|------X----14---14---14---14----12---|-12-------------------------|
G|-12----------%--------------|-%----X----14---14---14---14----12---|-12----------%--------------|
D|--------12---%----12---14---|-%-----------------------------------|--------12---%----12---14---|
A|----------------------------|-------------------------------------|----------------------------|
E|----------------------------|-------------------------------------|----------------------------|

E|-------------------------------------|----------------------------|-------------------------------------|
B|------X----14---14---14---14----12---|-12-------------------------|------X----14---14---14---14----12---|
G|-%----X----14---14---14---14----12---|-12----------%--------------|-%----X----14---14---14---14----12---|
D|-%-----------------------------------|--------12---%----12---14---|-%-----------------------------------|
A|-------------------------------------|----------------------------|-------------------------------------|
E|-------------------------------------|----------------------------|-------------------------------------|

E|----------------------------|-------------------------------------|----------------------------|
B|-12-------------------------|------X----14---14---14---14----12---|-12-------------------------|
G|-12----------%--------------|-%----X----14---14---14---14----12---|-12----------%--------------|
D|--------12---%----12---14---|-%-----------------------------------|--------12---%----12---14---|
A|----------------------------|-------------------------------------|----------------------------|
E|----------------------------|-------------------------------------|----------------------------|

E|-------------------------------------|----------------------------|-------------------------------------|
B|------X----14---14---14---14----12---|-12-------------------------|------X----14---14---14---14----12---|
G|-%----X----14---14---14---14----12---|-12----------%--------------|-%----X----14---14---14---14----12---|
D|-%-----------------------------------|--------12---%----12---14---|-%-----------------------------------|
A|-------------------------------------|----------------------------|-------------------------------------|
E|-------------------------------------|----------------------------|-------------------------------------|

E|----------------------------|-------------------------------------|----------------------------|
B|-12-------------------------|------X----14---14---14---14----12---|-12-------------------------|
G|-12----------%--------------|-%----X----14---14---14---14----12---|-12----------%--------------|
D|--------12---%----12---14---|-%-----------------------------------|--------12---%----12---14---|
A|----------------------------|-------------------------------------|----------------------------|
E|----------------------------|-------------------------------------|----------------------------|

E|---------------------------------------------------|---------------------------------------------------|
B|-14---14--------X----X----12---12--------X----X----|-14---14--------X----X----12---12--------X----X----|
G|-14---14---%----X----X----12---12---%----X----X----|-14---14---%----X----X----12---12---%----X----X----|
D|-----------%------------------------%--------------|-----------%------------------------%--------------|
A|---------------------------------------------------|---------------------------------------------------|
E|---------------------------------------------------|---------------------------------------------------|

E|---------------------------------------------------|---------------------------------------------------|
B|-14---14--------X----X----12---12--------X----X----|-14---14--------X----X----12---12--------X----X----|
G|-14---14---%----X----X----12---12---%----X----X----|-14---14---%----X----X----12---12---%----X----X----|
D|-----------%------------------------%--------------|-----------%------------------------%--------------|
A|---------------------------------------------------|---------------------------------------------------|
E|---------------------------------------------------|---------------------------------------------------|

E|---------------------------------------------------|--------------------------------------------|
B|-14---14--------X----X----12---12--------X----X----|-14---14--------X----X----12----12----12----|
G|-14---14---%----X----X----12---12---%----X----X----|-14---14---%----X----X----12----12----12----|
D|-----------%------------------------%--------------|-----------%--------------------------------|
A|---------------------------------------------------|--------------------------------------------|
E|---------------------------------------------------|--------------------------------------------|

E|-------------------|-------------------------|---------|---------|---------------|
B|-9-------9----14---|-14---14----14----12-----|-12------|-12------|---------------|
G|-9-------9----14---|-14---14----14----12-----|-12------|-12------|-9------%------|
D|-------------------|-------------------------|---------|---------|-9------%------|
A|-------------------|-------------------------|---------|---------|---------------|
E|-------------------|-------------------------|---------|---------|---------------|
Guns N' Roses - Dust 'N Bones
Guns N' Roses - Dust 'N Bones.gp3