Guns N' Roses - Garden of Eden

Guns N' Roses - Garden of Eden

Guns N Roses



Title: Garden of Eden
Album: 
Artist: 
Author: Guns N'Roses

Track 1: Guitar 1
D#|-X-------------|-----------------------------------------------------------------|
A#|-X-------------|-----------------------------------------------------------------|
F#|-X-------------|-----------------------------------------------------------------|
C#|--------X------|-----------------------------------------------------------------|
G#|--------X------|-----------------------------------------------------------------|
D#|---------------|-17--16--15--14--13--12--11--10--9---8---7---6---5---4---3---2---|

D#|---------------------------------|-----------5----5----5-------------------|-----------------------------------------|
A#|---------------------------------|-----------5----5----5-------------------|-----------------------------------------|
F#|---------------------------------|-----------------------------------------|-----------------------------------------|
C#|---------------------------------|------------------------------------2----|-2-------------------5----6---------2----|
G#|-2-----X----X----5----------2----|-2------------------------5----6----2----|-2----X----X----X----5----6---------2----|
D#|-0-----0----0----3-----0----0----|-0----0-------------------3----4----0----|-0----0----0----0----3----4----0----0----|

D#|-----------------------------------------|---------------------------------|-------------------------------------|
A#|-----------2----2----2-------------------|---------------------------------|-------------------------------------|
F#|-%----0----2----2----2-------------------|---------------------------------|-----------2----2----2---------------|
C#|-%----0----2----2----2-------------------|-2---------------5----------2----|-2---------2----2----2----------2----|
G#|-----------------------------------------|-2-----X----X----5----------2----|-2------------------------------2----|
D#|--------------------------3----3----0----|-0-----0----0----3-----0----0----|-0----0--------------------3----0----|

D#|---------------------------------|-------------------------------------|---------------------------------|
A#|---------------------------------|-------------------------------------|---------------------------------|
F#|---------------------------------|-%---------2----2----2---------------|---------------------------------|
C#|-2---------------5----------2----|-%---------2----2----2----------2----|-2---------------5----------2----|
G#|-2-----X----X----5----------2----|--------------------------------2----|-2---------------5----------2----|
D#|-0-----0----0----3-----0----0----|------0-------------------3-----0----|-0-----0----0----3-----0----0----|

D#|-----------------------------------------|---------------------------------|-----------------------------------------|
A#|-----------------------------------------|---------------------------------|-----------------------------------------|
F#|-----------------------------------------|---------------------------------|-----------------------------------------|
C#|-2---------7----7----7----5----6----2----|-2---------------5----------2----|-2---------7----7----7----5----6----2----|
G#|-2---------7----7----7----5----6----2----|-2---------------5----------2----|-2---------7----7----7----5----6----2----|
D#|-0----0----5----5----5----3----4----0----|-0-----0----0----3-----0----0----|-0----0----5----5----5----3----4----0----|

D#|---------------------------------|-----------------------------------------|---------------------------------|
A#|---------------------------------|-----------------------------------------|---------------------------------|
F#|---------------------------------|-----------------------------------------|---------------------------------|
C#|-2---------------5----------2----|-2---------7----7----7----5----6----2----|-2---------------5----------2----|
G#|-2---------------5----------2----|-2---------7----7----7----5----6----2----|-2---------------5----------2----|
D#|-0-----0----0----3-----0----0----|-0----0----5----5----5----3----4----0----|-0-----0----0----3-----0----0----|

D#|-----------------------------------------|-------------------------------------|
A#|-----------------------------------------|-------------------------------------|
F#|-----------------------------------------|-------------------------------------|
C#|-2---------7----7----7-------------------|-------------------------------------|
G#|-2---------7----7----7-------------------|-----------------1----2--------------|
D#|-0----0----5----5----5----3----0----0----|-0-----3----3--------------3----3----|

D#|-------------------------------------|-------------------------------------|-------------------------------------|
A#|-------------------------------------|-------------------------------------|-------------------------------------|
F#|-------------------------------------|-------------------------------------|-------------------------------------|
C#|-------------------------------------|-------------------------------------|-------------------------------------|
G#|-------3----4----3----1----2---------|-----------------1----2--------------|-------3----4----3----1----2---------|
D#|-3------------------------------3----|-3-----3----3--------------3----3----|-3------------------------------3----|

D#|-------------------------------------|-------------------------------------|-------------------------------------|
A#|-------------------------------------|-------------------------------------|-------------------------------------|
F#|-------------------------------------|-------------------------------------|-------------------------------------|
C#|-------------------------------------|-------------------------------------|-------------------------------------|
G#|-----------------1----2--------------|-------3----4----3----1----2---------|-----------------1----2--------------|
D#|-3-----3----3--------------3----3----|-3------------------------------3----|-3-----3----3--------------3----3----|

D#|-------------------------------------|---------------------------------|---------------------------------|
A#|-------------------------------------|---------------------------------|---------------------------------|
F#|-------------------------------------|---------------------------------|---------------------------------|
C#|--------------------------------5----|-5-----3-------------------------|---------------------------------|
G#|-------3----4----3----1----2---------|-------------5----3----1----3----|-3-----1-------------------------|
D#|-3-----------------------------------|---------------------------------|-------------3----1----0----3----|

D#|---------------------------------|---------------------------------|-------------------------------------|
A#|---------------------------------|---------------------------------|-------------------------------------|
F#|---------------------------------|---------------------------------|--------------------------------X----|
C#|---------------------------------|----------------------------5----|-5-----3---------5----3---------5----|
G#|-------------5----3----1----3----|-3-----1--------------------5----|-5-----3----X----5----3----X---------|
D#|-3-----1-------------------------|-------------3----1----2----3----|-3----------3--------------3---------|

D#|-----------------------------------------|-----------------------------------------|
A#|-----------------------------------------|-----------------------------------------|
F#|------------------------------------X----|------------------------------------X----|
C#|-----------3---------5----3---------5----|-----------3---------5----3---------5----|
G#|-X----X----3----X----5----3----X---------|-X----X----3----X----5----3----X---------|
D#|-3----3---------3--------------3---------|-3----3---------3--------------3---------|

D#|-----------------------------------------|-----------------------------------------|
A#|-----------------------------------------|-----------------------------------------|
F#|------------------------------------X----|------------------------------------X----|
C#|-----------3---------5----3---------5----|-----------3---------5----3---------5----|
G#|-X----X----3----X----5----3----X---------|-X----X----3----X----5----3----X---------|
D#|-3----3---------3--------------3---------|-3----3---------3--------------3---------|

D#|-----------------------------------------|-----------------------------------------|
A#|-----------------------------------------|-----------------------------------------|
F#|------------------------------------X----|-----------------------------------------|
C#|-----------3---------5----3---------5----|-----------3---------5----3---------5----|
G#|-X----X----3----X----5----3----X---------|-X----X----3---------5----3----X----5----|
D#|-3----3---------3--------------3---------|-3----3---------3--------------3----3----|

D#|-----------------------------|---------------------------------|-----------------------------------------|
A#|-----------------------------|---------------------------------|-----------------------------------------|
F#|-----------------------------|---------------------------------|-----------------------------------------|
C#|-5-----5-----4-----3----2----|-2---------------5----------2----|-2---------7----7----7----5----6----2----|
G#|-5-----5-----4-----3----2----|-2---------------5----------2----|-2---------7----7----7----5----6----2----|
D#|-3-----3-----2-----1----0----|-0-----0----0----3-----0----0----|-0----0----5----5----5----3----4----0----|

D#|---------------------------------|-----------------------------------------|---------------------------------|
A#|---------------------------------|-----------------------------------------|---------------------------------|
F#|---------------------------------|-----------------------------------------|---------------------------------|
C#|-2---------------5----------2----|-2---------7----7----7----5----6----2----|-2---------------5----------2----|
G#|-2---------------5----------2----|-2---------7----7----7----5----6----2----|-2---------------5----------2----|
D#|-0-----0----0----3-----0----0----|-0----0----5----5----5----3----4----0----|-0-----0----0----3-----0----0----|

D#|-----------------------------------------|---------------------------------|-----------------------------------------|
A#|-----------------------------------------|---------------------------------|-----------------------------------------|
F#|-----------------------------------------|---------------------------------|-----------------------------------------|
C#|-2---------7----7----7----5----6----2----|-2---------------5----------2----|-2---------7----7----7----5----6---------|
G#|-2---------7----7----7----5----6----2----|-2---------------5----------2----|-2---------7----7----7----5----6----0----|
D#|-0----0----5----5----5----3----4----0----|-0-----0----0----3-----0----0----|-0----0----5----5----5----3----4---------|

D#|---------------------------------|---------------------------------|---------------------------------|
A#|---------------------------------|---------------------------------|---------------------------------|
F#|-2-----2-------------------------|---------------------------------|-------2-------------------------|
C#|-2-----2-------------------------|-------2-------------------------|-------2-------------------------|
G#|-0-----0-----3----0----0----3----|-3-----0-----3----0----0----3----|-3-----0-----3----0----0----3----|
D#|---------------------------------|---------------------------------|---------------------------------|

D#|---------------------------------|---------------------------------|---------------------------------|
A#|---------------------------------|---------------------------------|---------------------------------|
F#|-------2--------------------5----|-5-----2--------------------5----|-5-----2-------------------------|
C#|-------2--------------------5----|-5-----2--------------------5----|-5-----2-------------------------|
G#|-3-----0-----3----0----0----3----|-3-----0-----3----0----0----3----|-3-----0-----3----0----0----0----|
D#|---------------------------------|---------------------------------|---------------------------------|

D#|-------------------------|-------------------------|-------------------------------------|
A#|-------------------------|-------------------------|-------------------------------------|
F#|-------------------------|-------------------------|-------------------------------------|
C#|-7------6----6-----5-----|-------------------------|-------------------------------------|
G#|-------------------------|-3-----------------------|-----------------1----2--------------|
D#|-------------------------|------0------1-----2-----|-3-----3----3--------------3----3----|

D#|-------------------------------------|-------------------------------------|-------------------------------------|
A#|-------------------------------------|-------------------------------------|-------------------------------------|
F#|-------------------------------------|-------------------------------------|-------------------------------------|
C#|-------------------------------------|-------------------------------------|-------------------------------------|
G#|-------3----4----3----1----2---------|-----------------1----2--------------|-------3----4----3----1----2---------|
D#|-3------------------------------3----|-3-----3----3--------------3----3----|-3------------------------------3----|

D#|-------------------------------------|-------------------------------------|-------------------------------------|
A#|-------------------------------------|-------------------------------------|-------------------------------------|
F#|-------------------------------------|-------------------------------------|-------------------------------------|
C#|-------------------------------------|-------------------------------------|-------------------------------------|
G#|-----------------1----2--------------|-------3----4----3----1----2---------|-----------------1----2--------------|
D#|-3-----3----3--------------3----3----|-3------------------------------3----|-3-----3----3--------------3----3----|

D#|-----------------------------------------|---------------------------------|---------------------------------|
A#|-----------------------------------------|---------------------------------|---------------------------------|
F#|-----------------------------------------|---------------------------------|---------------------------------|
C#|------------------------------------5----|-5-----3-------------------------|---------------------------------|
G#|------2----3----2----3----2----0---------|-------------5----3----1----3----|-3-----1-------------------------|
D#|-3---------------------------------------|---------------------------------|-------------3----1----0----3----|

D#|---------------------------------|---------------------------------|-------------------------------------|
A#|---------------------------------|---------------------------------|-------------------------------------|
F#|---------------------------------|---------------------------------|--------------------------------X----|
C#|---------------------------------|----------------------------5----|-5-----3---------5----3---------5----|
G#|-------------5----3----1----3----|-3-----1--------------------5----|-5-----3----X----5----3----X---------|
D#|-3-----1-------------------------|-------------3----1----2----3----|-3----------3--------------3---------|

D#|-----------------------------------------|-----------------------------------------|
A#|-----------------------------------------|-----------------------------------------|
F#|------------------------------------X----|------------------------------------X----|
C#|-----------3---------5----3---------5----|-----------3---------5----3---------5----|
G#|-X----X----3----X----5----3----X---------|-X----X----3----X----5----3----X---------|
D#|-3----3---------3--------------3---------|-3----3---------3--------------3---------|

D#|-----------------------------------------|-----------------------------------------|
A#|-----------------------------------------|-----------------------------------------|
F#|------------------------------------X----|------------------------------------X----|
C#|-----------3---------5----3---------5----|-----------3---------5----3---------5----|
G#|-X----X----3----X----5----3----X---------|-X----X----3----X----5----3----X---------|
D#|-3----3---------3--------------3---------|-3----3---------3--------------3---------|

D#|-----------------------------------------|-----------------------------------------|
A#|-----------------------------------------|-----------------------------------------|
F#|------------------------------------X----|-----------------------------------------|
C#|-----------3---------5----3---------5----|-----------3---------5----3---------5----|
G#|-X----X----3----X----5----3----X---------|-X----X----3---------5----3----X----5----|
D#|-3----3---------3--------------3---------|-3----3---------3--------------3----3----|

D#|-----------------------------|---------------------------------|-----------------------------------------|
A#|-----------------------------|---------------------------------|-----------------------------------------|
F#|-----------------------------|---------------------------------|-----------------------------------------|
C#|-5-----5-----4-----3----2----|-2---------------5----------2----|-2---------7----7----7----5----6----2----|
G#|-5-----5-----4-----3----2----|-2---------------5----------2----|-2---------7----7----7----5----6----2----|
D#|-3-----3-----2-----1----0----|-0-----0----0----3-----0----0----|-0----0----5----5----5----3----4----0----|

D#|---------------------------------|-----------------------------------------|---------------------------------|
A#|---------------------------------|-----------------------------------------|---------------------------------|
F#|---------------------------------|-----------------------------------------|---------------------------------|
C#|-2---------------5----------2----|-2---------7----7----7----5----6----2----|-2---------------5----------2----|
G#|-2---------------5----------2----|-2---------7----7----7----5----6----2----|-2---------------5----------2----|
D#|-0-----0----0----3-----0----0----|-0----0----5----5----5----3----4----0----|-0-----0----0----3-----0----0----|

D#|-----------------------------------------|---------------------------------|-----------------------------------------|
A#|-----------------------------------------|---------------------------------|-----------------------------------------|
F#|-----------------------------------------|---------------------------------|-----------------------------------------|
C#|-2---------7----7----7----5----6----2----|-2---------------5----------2----|-2---------7----7----7----5----6---------|
G#|-2---------7----7----7----5----6----2----|-2---------------5----------2----|-2---------7----7----7----5----6----0----|
D#|-0----0----5----5----5----3----4----0----|-0-----0----0----3-----0----0----|-0----0----5----5----5----3----4---------|

D#|---------------------------------|---------------------------------|---------------------------------|
A#|---------------------------------|---------------------------------|---------------------------------|
F#|-2-----2-------------------------|---------------------------------|-------2-------------------------|
C#|-2-----2-------------------------|-------2-------------------------|-------2-------------------------|
G#|-0-----0-----3----0----0----3----|-3-----0-----3----0----0----3----|-3-----0-----3----0----0----3----|
D#|---------------------------------|---------------------------------|---------------------------------|

D#|---------------------------------|---------------------------------|---------------------------------|
A#|---------------------------------|---------------------------------|---------------------------------|
F#|-------2--------------------5----|-5-----2--------------------5----|-5-----2-------------------------|
C#|-------2--------------------5----|-5-----2--------------------5----|-5-----2-------------------------|
G#|-3-----0-----3----0----0----3----|-3-----0-----3----0----0----3----|-3-----0-----3----0----0----0----|
D#|---------------------------------|---------------------------------|---------------------------------|

D#|-------------------------|-------------------------|-------------------------------------|
A#|-------------------------|-------------------------|-------------------------------------|
F#|-------------------------|-------------------------|-------------------------------------|
C#|-7------6----6-----5-----|-------------------------|-------------------------------------|
G#|-------------------------|-3-----------------------|-----------------1----2--------------|
D#|-------------------------|------0------1-----2-----|-3-----3----3--------------3----3----|

D#|-------------------------------------|-------------------------------------|-------------------------------------|
A#|-------------------------------------|-------------------------------------|-------------------------------------|
F#|-------------------------------------|-------------------------------------|-------------------------------------|
C#|-------------------------------------|-------------------------------------|-------------------------------------|
G#|-------3----4----3----1----2---------|-----------------1----2--------------|-------3----4----3----1----2---------|
D#|-3------------------------------3----|-3-----3----3--------------3----3----|-3------------------------------3----|

D#|-------------------------------------|-------------------------------------|-------------------------------------|
A#|-------------------------------------|-------------------------------------|-------------------------------------|
F#|-------------------------------------|-------------------------------------|-------------------------------------|
C#|-------------------------------------|-------------------------------------|-------------------------------------|
G#|-----------------1----2--------------|-------3----4----3----1----2---------|-----------------1----2--------------|
D#|-3-----3----3--------------3----3----|-3------------------------------3----|-3-----3----3--------------3----3----|

D#|-------------------------------------|-------------------------------------------------------|
A#|-------------------------------------|-------------------------------------------------------|
F#|--------------------------------2----|-2---------%-------%-------%-------%-------%-------%---|
C#|--------------------------------2----|-2---------%-------%-------%-------%-------%-------%---|
G#|-------3----4----3----1----2----0----|-0-----0-------0-------0-------0-------0-------0-------|
D#|-3-----------------------------------|-------------------------------------------------------|

D#|-----------------------------------------------------------------|-----------------------------------------------------------------|
A#|-----------------------------------------------------------------|-----------------------------------------------------------------|
F#|-----%-------%---2---2-------%-------%-------%---2---2-------%---|-----%-------%---2---2-------%-------%-------%---2---2-------%---|
C#|-----%-------%---2---2-------%-------%-------%---2---2-------%---|-----%-------%---2---2-------%-------%-------%---2---2-------%---|
G#|-0-------0-------0---0---0-------0-------0-------0---0---0-------|-0-------0-------0---0---0-------0-------0-------0---0---0-------|
D#|-----------------------------------------------------------------|-----------------------------------------------------------------|

D#|-----------------------------------------------------|-----------------------------------------------------------------|
A#|-----------------------------------------------------|-----------------------------------------------------------------|
F#|-----%-------%---2---2-------%-----------------------|-----%-------%-------%-------%-------%-------%-------%-------%---|
C#|-----%-------%---2---2-------%---2----2--------------|-----%-------%-------%-------%-------%-------%-------%-------%---|
G#|-0-------0-------0---0---0-------0----0----3----4----|-0-------0-------0-------0-------0-------0-------0-------0-------|
D#|-----------------------------------------------------|-----------------------------------------------------------------|

D#|-----------------------------------------------------------|------------------------------------------|
A#|-----------------------------------------------------------|------------------------------------------|
F#|-----%---------------%-------%---------------%-------------|------------------------------------------|
C#|-----%---------------%-------%---------------%-------------|----------------------2----4--------------|
G#|-0-------0---0---0-------0-------0---0---0-------3----0----|-0-----0----3----4--------------0----0----|
D#|-----------------------------------------------------------|------------------------------------------|

D#|-----------------------------------------|-----------------------------------------------------|
A#|-----------------------------------------|-----------------------------------------------------|
F#|-----------------------------------------|---------------%-------%-------%-----------------%---|
C#|-----------------------------------------|---------------%-------%-------%-----------------%---|
G#|-0----0----3----4----3----0----0----2----|-2----2----2-------2-------2-------2----2----2-------|
D#|-----------------------------------------|-----------------------------------------------------|

D#|-----------------------------------------------|----------------------------------------------------|
A#|-----------------------------------------------|----------------------------------------------------|
F#|-----%-----------------%-----------------------|-----------%-------%------------%-------%-------%---|
C#|-----%-----------------%-----------------------|-----------%-------%------------%-------%-------%---|
G#|-2-------2----2----2-------2----2----2---------|----------------------------------------------------|
D#|------------------------------------------3----|-3-----3-------3-------3----3-------3-------3-------|

D#|--------------------------------------------------------|--------------------------------------------------------|
A#|--------------------------------------------------------|--------------------------------------------------------|
F#|----------%-------%-----------------%-------%-------%---|----------%-------%-------%------------%-------%--------|
C#|----------%-------%-----------------%-------%-------%---|----------%-------%-------%------------%-------%--------|
G#|--------------------------------------------------------|--------------------------------------------------------|
D#|-3----3-------3-------3----3----3-------3-------3-------|-5----5-------5-------5-------5----5-------5-------5----|

D#|-----------------------------------------------------|-----------------------------------------|
A#|-----------------------------------------------------|-----------------------------------------|
F#|-----%------------%-----------------%-------%--------|-----------------------------------------|
C#|-----%------------%-----------------%-------%--------|-----------------------------------------|
G#|-----------------------------------------------------|-----------------------------------------|
D#|-5-------5----5-------5----5----5-------5-------5----|-5----5----5----5----5----5----5----5----|

D#|---------------|-------------------------------------|-------------------------------------|
A#|---------------|-------------------------------------|-------------------------------------|
F#|---------------|-------------------------------------|-------------------------------------|
C#|---------------|-------------------------------------|-------------------------------------|
G#|---------------|-----------------1----2--------------|-------3----4----3----1----2---------|
D#|-5-------3-----|-3-----3----3--------------3----3----|-3------------------------------3----|

D#|-------------------------------------|-------------------------------------|-------------------------------------|
A#|-------------------------------------|-------------------------------------|-------------------------------------|
F#|-------------------------------------|-------------------------------------|-------------------------------------|
C#|-------------------------------------|-------------------------------------|-------------------------------------|
G#|-----------------1----2--------------|-------3----4----3----1----2---------|-----------------1----2--------------|
D#|-3-----3----3--------------3----3----|-3------------------------------3----|-3-----3----3--------------3----3----|

D#|-------------------------------------|-------------------------------------|-------------------------------------|
A#|-------------------------------------|-------------------------------------|-------------------------------------|
F#|-------------------------------------|-------------------------------------|-------------------------------------|
C#|-------------------------------------|-------------------------------------|--------------------------------5----|
G#|-------3----4----3----1----2---------|-----------------1----2--------------|-------3----4----3----1----2---------|
D#|-3------------------------------3----|-3-----3----3--------------3----3----|-3-----------------------------------|

D#|---------------------------------|---------------------------------|---------------------------------|
A#|---------------------------------|---------------------------------|---------------------------------|
F#|---------------------------------|---------------------------------|---------------------------------|
C#|-5-----3-------------------------|---------------------------------|---------------------------------|
G#|-------------5----3----1----3----|-3-----1-------------------------|-------------5----3----1----3----|
D#|---------------------------------|-------------3----1----0----3----|-3-----1-------------------------|

D#|---------------------------------|-------------------------------------|-------------------------------------|
A#|---------------------------------|-------------------------------------|-------------------------------------|
F#|---------------------------------|-------------------------------------|-------------------------------------|
C#|----------------------------5----|-5-----------------------------------|-------------------------------------|
G#|-3-----1--------------------5----|-5---------------1----2--------------|-------3----4----3----1----2---------|
D#|-------------3----1----2----3----|-3-----3----3--------------3----3----|-3------------------------------3----|

D#|-------------------------------------|-------------------------------------|-------------------------------------|
A#|-------------------------------------|-------------------------------------|-------------------------------------|
F#|-------------------------------------|-------------------------------------|-------------------------------------|
C#|-------------------------------------|-------------------------------------|-------------------------------------|
G#|-----------------1----2--------------|-------3----4----3----1----2---------|-----------------1----2--------------|
D#|-3-----3----3--------------3----3----|-3------------------------------3----|-3-----3----3--------------3----3----|

D#|-------------------------------------|-------------------------------------|-------------------------------------|
A#|-------------------------------------|-------------------------------------|-------------------------------------|
F#|-------------------------------------|-------------------------------------|-------------------------------------|
C#|-------------------------------------|-------------------------------------|--------------------------------5----|
G#|-------3----4----3----1----2---------|-----------------1----2--------------|-------3----4----3----1----2---------|
D#|-3------------------------------3----|-3-----3----3--------------3----3----|-3-----------------------------------|

D#|---------------------------------|---------------------------------|---------------------------------|
A#|---------------------------------|---------------------------------|---------------------------------|
F#|---------------------------------|---------------------------------|---------------------------------|
C#|-5-----3-------------------------|---------------------------------|---------------------------------|
G#|-------------5----3----1----3----|-3-----1-------------------------|-------------5----3----1----3----|
D#|---------------------------------|-------------3----1----0----3----|-3-----1-------------------------|

D#|---------------------------------|--------------------|
A#|---------------------------------|--------------------|
F#|---------------------------------|-------%-----%------|
C#|----------------------------5----|-5-----%-----%------|
G#|-3-----1--------------------5----|-5------------------|
D#|-------------3----1----2----3----|-3------------------|
Guns N' Roses - Garden of Eden
Guns N' Roses - Garden of Eden.gp3