Guns N' Roses - Intermission

Guns N' Roses - Intermission

Guns N Roses



Title: -
Album: 
Artist: Guns N' Roses
Author: 

Track 1: Lead Guitar - Talk Box [Slash]
D#|---------|---------|---------|---------|---------|---------|---------|---------|
A#|---------|---------|---------|---------|---------|---------|---------|---------|
F#|-%-------|-%-------|-%-------|-%-------|-%-------|-%-------|-%-------|-%-------|
C#|-%-------|-%-------|-%-------|-%-------|-%-------|-%-------|-%-------|-%-------|
G#|---------|---------|---------|---------|---------|---------|---------|---------|
D#|---------|---------|---------|---------|---------|---------|---------|---------|

D#|---------|---------|---------------------------|----------------------------------|
A#|---------|---------|--------------X------------|-------------X---X---X------------|
F#|-%-------|-%-------|-%------%-----X---3---3----|-%------%----X---X---X---3---3----|
C#|-%-------|-%-------|-%------%-----X------------|-%------%----X---X---X------------|
G#|---------|---------|--------------1------------|-------------1---1---1------------|
D#|---------|---------|--------------X------------|-------------X---X---X------------|

D#|----------------------------------|--------------------------------------------------|
A#|-------------X---X----------------|-----------------------------X---X---X------------|
F#|-%------%----X---X---5---3---3----|-----%--------%--------------X---X---X---3---3----|
C#|-%------%----X---X----------------|-5---%----3---%----5----5----X---X---X------------|
G#|-------------1---1----------------|-----------------------------1---1---1------------|
D#|-------------X---X----------------|-----------------------------X---X---X------------|

D#|--------------------------------------------------|--------------------------------------------------|
A#|--------------------------------------------------|-----------------------------X---X---X---3---3----|
F#|-----%--------%----------------------5---3---3----|-----%--------%--------------X---X---X---3---3----|
C#|-5---%----3---%----5----5----5---3----------------|-5---%----3---%----5----5----X---X---X------------|
G#|--------------------------------------------------|-----------------------------1---1---1------------|
D#|--------------------------------------------------|-----------------------------X---X---X------------|

D#|--------------------|--------------------------------------------------|--------------------------------------------------|
A#|-5------5-----3-----|-----------------------------X---X---X------------|--------------------------------------------------|
F#|-5------5-----3-----|-----%--------%--------------X---X---X---3---3----|-----%--------%----------------------5---3---3----|
C#|--------------------|-5---%----3---%----5----5----X---X---X------------|-5---%----3---%----5----5----5---3----------------|
G#|--------------------|-----------------------------1---1---1------------|--------------------------------------------------|
D#|--------------------|-----------------------------X---X---X------------|--------------------------------------------------|

D#|--------------------------------------------------|--------------------|--------------------------------------------------|
A#|-----------------------------X---X---X---3---3----|-5------5-----3-----|-----------------------------X---X---X------------|
F#|-----%--------%--------------X---X---X---3---3----|-5------5-----3-----|-----%--------%--------------X---X---X---3---3----|
C#|-5---%----3---%----5----5----X---X---X------------|--------------------|-5---%----3---%----5----5----X---X---X------------|
G#|-----------------------------1---1---1------------|--------------------|-----------------------------1---1---1------------|
D#|-----------------------------X---X---X------------|--------------------|-----------------------------X---X---X------------|

D#|--------------------------------------------------|--------------------------------------------------|
A#|--------------------------------------------------|-----------------------------X---X---X---3---3----|
F#|-----%--------%----------------------5---3---3----|-----%--------%--------------X---X---X---3---3----|
C#|-5---%----3---%----5----5----5---3----------------|-5---%----3---%----5----5----X---X---X------------|
G#|--------------------------------------------------|-----------------------------1---1---1------------|
D#|--------------------------------------------------|-----------------------------X---X---X------------|

D#|--------------------|--------------------------------------------------|--------------------------------------------------|
A#|-5------5-----3-----|-----------------------------X---X---X------------|--------------------------------------------------|
F#|-5------5-----3-----|-----%--------%--------------X---X---X---3---3----|-----%--------%----------------------5---3---3----|
C#|--------------------|-5---%----3---%----5----5----X---X---X------------|-5---%----3---%----5----5----5---3----------------|
G#|--------------------|-----------------------------1---1---1------------|--------------------------------------------------|
D#|--------------------|-----------------------------X---X---X------------|--------------------------------------------------|

D#|--------------------------------------------------|--------------------|--------------------------------------------------|
A#|-----------------------------X---X---X---3---3----|-5------5-----3-----|-----------------------------X---X---X------------|
F#|-----%--------%--------------X---X---X---3---3----|-5------5-----3-----|-----%--------%--------------X---X---X---3---3----|
C#|-5---%----3---%----5----5----X---X---X------------|--------------------|-5---%----3---%----5----5----X---X---X------------|
G#|-----------------------------1---1---1------------|--------------------|-----------------------------1---1---1------------|
D#|-----------------------------X---X---X------------|--------------------|-----------------------------X---X---X------------|

D#|--------------------------------------------------|--------------------------------------------------|
A#|--------------------------------------------------|-----------------------------X---X---X---3---3----|
F#|-----%--------%----------------------5---3---3----|-----%--------%--------------X---X---X---3---3----|
C#|-5---%----3---%----5----5----5---3----------------|-5---%----3---%----5----5----X---X---X------------|
G#|--------------------------------------------------|-----------------------------1---1---1------------|
D#|--------------------------------------------------|-----------------------------X---X---X------------|

D#|--------------------|---------|---------|
A#|-5------5-----3-----|-5-------|-5-------|
F#|-5------5-----3-----|-5-------|-5-------|
C#|--------------------|---------|---------|
G#|--------------------|---------|---------|
D#|--------------------|---------|---------|
Guns N' Roses - Intermission
Guns N' Roses - Intermission.gp4