Guns N' Roses - it 's so easy (4)

Guns N' Roses - it 's so easy (4)

Guns N Roses



Title: It' so easy
Album: Appetite fro destruction
Artist: Guns 'n' Roses
Author: 

Track 1: Guitar 1
E|-----------------------------------------|-----------------------------------------|
B|-----------------------------------------|-----------------------------------------|
G|-----------------------------------------|-----------------------------------------|
D|-----------------------------------------|-----------------------------------------|
A|-7----7----7----7----7----7----7----7----|-7----7----7----7----7----7----7----7----|
E|-----------------------------------------|-----------------------------------------|

E|-----------------------------------------|-----------------------------------------|
B|-----------------------------------------|-----------------------------------------|
G|-----------------------------------------|-----------------------------------------|
D|-----------------------------------------|-----------------------------------------|
A|-7----7----7----7----7----7----7----7----|-7----7----7----7----7----7----7----7----|
E|-----------------------------------------|-----------------------------------------|

E|-----------------------------------------|-----------------------------------------|
B|-----------------------------------------|-----------------------------------------|
G|-----------------------------------------|-----------------------------------------|
D|-----------------------------------------|-----------------------------------------|
A|-7----7----7----7----7----7----7----7----|-7----7----7----7----7----7----7----7----|
E|-----------------------------------------|-----------------------------------------|

E|-----------------------------------------|---------|---------------------------------|
B|-----------------------------------------|---------|---------------------------------|
G|-----------------------------------------|-12------|-3-----3----2----0----0----------|
D|-----------------------------------------|---------|-3-----3----2----0----0----------|
A|-7----7----7----7----7----7----7----7----|---------|----------------------------2----|
E|-----------------------------------------|---------|----------------------------0----|

E|-------------------------------------|---------------------------------|-------------------------------------|
B|-------------------------------------|---------------------------------|-------------------------------------|
G|------9----%----9----9----9----0-----|-3-----3----2----0----0----------|------9----%----9----9----9----0-----|
D|------9----%----9----9----9----0-----|-3-----3----2----0----0----------|------9----%----9----9----9----0-----|
A|-2-----------------------------------|----------------------------2----|-2-----------------------------------|
E|-0-----------------------------------|----------------------------0----|-0-----------------------------------|

E|---------------------------------|-------------------------------------|---------------------------------|
B|---------------------------------|-------------------------------------|---------------------------------|
G|-3-----3----2----0----0----------|------9----%----9----9----9----0-----|-3-----3----2----0----0----------|
D|-3-----3----2----0----0----------|------9----%----9----9----9----0-----|-3-----3----2----0----0----------|
A|----------------------------2----|-2-----------------------------------|----------------------------2----|
E|----------------------------0----|-0-----------------------------------|----------------------------0----|

E|-------------------------------------|-----------------------------------------|-----------------------------------------|
B|-------------------------------------|-----------------------------------------|-----------------------------------------|
G|------9----%----9----9----9----0-----|-------------------------------%---------|-%---------------------------------------|
D|------9----%----9----9----9----0-----|-7----7----5----7----8----8----%---------|-%----2----2----2----2----2----2---------|
A|-2-----------------------------------|-7----7----5----7----8----8--------------|------2----2----2----2----2----2---------|
E|-0-----------------------------------|-5----5----3----5----6----6---------0----|------0----0----0----0----0----0----0----|

E|-----------------------------------------|-----------------------------------------|
B|-----------------------------------------|-----------------------------------------|
G|-------------------------------%---------|-%---------------------------------------|
D|-7----7----5----7----8----8----%---------|-%----2----2----2----2----2----2---------|
A|-7----7----5----7----8----8--------------|------2----2----2----2----2----2---------|
E|-5----5----3----5----6----6---------0----|------0----0----0----0----0----0----0----|

E|-----------------------------------------|-----------------------------------------|
B|-----------------------------------------|-----------------------------------------|
G|-------------------------------%---------|-%---------------------------------------|
D|-7----7----5----7----8----8----%---------|-%----2----2----2----2----2----2---------|
A|-7----7----5----7----8----8--------------|------2----2----2----2----2----2---------|
E|-5----5----3----5----6----6---------0----|------0----0----0----0----0----0----0----|

E|-----------------------------------------|-----------------------------------------|
B|-----------------------------------------|-----------------------------------------|
G|-------------------------------%---------|-%---------------------------------------|
D|-7----7----5----7----8----8----%---------|-%----2----2----2----2----2----2---------|
A|-7----7----5----7----8----8--------------|------2----2----2----2----2----2---------|
E|-5----5----3----5----6----6---------0----|------0----0----0----0----0----0----0----|

E|-----------------------------------------|---------|---------|---------|---------|
B|-----------------------------------------|---------|---------|---------|---------|
G|-%---------------------------------------|---------|---------|---------|---------|
D|-%----2----2----2----2----2----2---------|---------|---------|---------|---------|
A|------2----2----2----2----2----2---------|---------|---------|-2-------|-0-------|
E|------0----0----0----0----0----0----0----|-2-------|-3-------|---------|---------|

E|---------|---------|---------|---------|-----------------------------------------|
B|---------|---------|---------|---------|-----------------------------------------|
G|---------|---------|---------|---------|-----------------------------------------|
D|---------|---------|---------|---------|-----------------------------------------|
A|---------|---------|-2-------|-0-------|-----------------------------------------|
E|-2-------|-3-------|---------|---------|-0----0----0----0----0----0----0----0----|

E|-----------------------------------------|-----------------------------------------|
B|-----------------------------------------|-----------------------------------------|
G|-----------------------------------------|-----------------------------------------|
D|-----------------------------------------|-----------------------------------------|
A|-----------------------------------------|-----------------------------------------|
E|-0----0----0----0----0----0----0----0----|-0----0----0----0----0----0----0----0----|

E|-----------------------------------------|-------------------------------------|---------------------------------|
B|-----------------------------------------|-------------------------------------|---------------------------------|
G|-----------------------------------------|-7-----7----5----7-------------------|---------------------------------|
D|-----------------------------------------|-7-----7----5----7----5----4----2----|-2----2----2-----2----2----2-----|
A|----------------7----7----5--------------|----------------------5----4----2----|-2----2----2-----2----2----2-----|
E|-0----0----0-------------------7----5----|--------------------------------0----|-0----0----0-----0----0----0-----|

E|-------------------------------------|---------------------------------|-------------------------------------|
B|-------------------------------------|---------------------------------|-------------------------------------|
G|-7-----7----5----7-------------------|---------------------------------|-7-----7----5----7-------------------|
D|-7-----7----5----7----5----4----2----|-2----2----2-----2----2----2-----|-7-----7----5----7----5----4----2----|
A|----------------------5----4----2----|-2----2----2-----2----2----2-----|----------------------5----4----2----|
E|--------------------------------0----|-0----0----0-----0----0----0-----|--------------------------------0----|

E|---------------------------------|-------------------------------------|---------------------------------|
B|---------------------------------|-------------------------------------|---------------------------------|
G|---------------------------------|-7-----7----5----7-------------------|---------------------------------|
D|-2----2----2-----2----2----2-----|-7-----7----5----7----5----4----2----|-2----2----2-----2----2----2-----|
A|-2----2----2-----2----2----2-----|----------------------5----4----2----|-2----2----2-----2----2----2-----|
E|-0----0----0-----0----0----0-----|--------------------------------0----|-0----0----0-----0----0----0-----|

E|--------------------|--------------------|-------12------------------------------------|
B|-17-----17----17----|-17----17-----15----|-15--------15--12--------------------12------|
G|--------------------|-------17-----------|-------------------14--14----12--14------12--|
D|--------------------|--------------------|---------------------------------------------|
A|--------------------|--------------------|---------------------------------------------|
E|--------------------|--------------------|---------------------------------------------|

E|-------------------------------------|-----------------------------------------|-----------------------------|
B|-------------------------------------|-12--------12--------12-------------12---|------------15---15----14----|
G|-12------------------------12---14---|------15--------15--------15---14--------|-12--------------------------|
D|-------14---14---14---14-------------|-----------------------------------------|-------14--------------------|
A|-------------------------------------|-----------------------------------------|-----------------------------|
E|-------------------------------------|-----------------------------------------|-----------------------------|

E|-----------------------------|------------------------|---------------------------------|
B|-14----14----14--------------|-----------15-----15----|---------------------------------|
G|-------------------12--------|------------------------|-3-----3----2----0----0----------|
D|------------------------14---|-14---14----------------|-3-----3----2----0----0----------|
A|-----------------------------|------------------------|----------------------------2----|
E|-----------------------------|------------------------|----------------------------0----|

E|-------------------------------------|---------------------------------|-------------------------------------|
B|-------------------------------------|---------------------------------|-------------------------------------|
G|------9----%----9----9----9----0-----|-3-----3----2----0----0----------|------9----%----9----9----9----0-----|
D|------9----%----9----9----9----0-----|-3-----3----2----0----0----------|------9----%----9----9----9----0-----|
A|-2-----------------------------------|----------------------------2----|-2-----------------------------------|
E|-0-----------------------------------|----------------------------0----|-0-----------------------------------|

E|---------------------------------|-------------------------------------|---------------------------------|
B|---------------------------------|-------------------------------------|---------------------------------|
G|-3-----3----2----0----0----------|------9----%----9----9----9----0-----|-3-----3----2----0----0----------|
D|-3-----3----2----0----0----------|------9----%----9----9----9----0-----|-3-----3----2----0----0----------|
A|----------------------------2----|-2-----------------------------------|----------------------------2----|
E|----------------------------0----|-0-----------------------------------|----------------------------0----|

E|-------------------------------------|-----------------------------------------|-----------------------------------------|
B|-------------------------------------|-----------------------------------------|-----------------------------------------|
G|------9----%----9----9----9----0-----|-------------------------------%---------|-%---------------------------------------|
D|------9----%----9----9----9----0-----|-7----7----5----7----8----8----%---------|-%----2----2----2----2----2----2---------|
A|-2-----------------------------------|-7----7----5----7----8----8--------------|------2----2----2----2----2----2---------|
E|-0-----------------------------------|-5----5----3----5----6----6---------0----|------0----0----0----0----0----0----0----|

E|-----------------------------------------|-----------------------------------------|
B|-----------------------------------------|-----------------------------------------|
G|-------------------------------%---------|-%---------------------------------------|
D|-7----7----5----7----8----8----%---------|-%----2----2----2----2----2----2---------|
A|-7----7----5----7----8----8--------------|------2----2----2----2----2----2---------|
E|-5----5----3----5----6----6---------0----|------0----0----0----0----0----0----0----|

E|-----------------------------------------|-----------------------------------------|
B|-----------------------------------------|-----------------------------------------|
G|-------------------------------%---------|-%---------------------------------------|
D|-7----7----5----7----8----8----%---------|-%----2----2----2----2----2----2---------|
A|-7----7----5----7----8----8--------------|------2----2----2----2----2----2---------|
E|-5----5----3----5----6----6---------0----|------0----0----0----0----0----0----0----|

E|-----------------------------------------|-----------------------------------------|
B|-----------------------------------------|-----------------------------------------|
G|-------------------------------%---------|-%---------------------------------------|
D|-7----7----5----7----8----8----%---------|-%----2----2----2----2----2----2---------|
A|-7----7----5----7----8----8--------------|------2----2----2----2----2----2---------|
E|-5----5----3----5----6----6---------0----|------0----0----0----0----0----0----0----|

E|---------|---------|---------|---------|---------|---------|---------|---------|---------|
B|---------|---------|---------|---------|---------|---------|---------|---------|---------|
G|---------|---------|---------|---------|---------|---------|---------|---------|---------|
D|---------|---------|---------|---------|---------|---------|---------|---------|-4-------|
A|---------|---------|-2-------|-0-------|---------|---------|-2-------|-0-------|-4-------|
E|-2-------|-3-------|---------|---------|-2-------|-3-------|---------|---------|-2-------|

E|---------|---------|---------|---------|---------|---------|---------|---------------------------------|
B|---------|---------|---------|---------|---------|---------|---------|---------------------------------|
G|---------|-4-------|-2-------|---------|---------|-4-------|-2-------|-3-----3----2----0----0----------|
D|-5-------|-4-------|-2-------|-4-------|-5-------|-4-------|-2-------|-3-----3----2----0----0----------|
A|-5-------|-2-------|-0-------|-4-------|-5-------|-2-------|-0-------|----------------------------2----|
E|-3-------|---------|---------|-2-------|-3-------|---------|---------|----------------------------0----|

E|-------------------------------------|-----------------------------------------|-----------------------------------------|
B|-------------------------------------|-----------------------------------------|-----------------------------------------|
G|------9----%----9----9----9----0-----|-----------------------------------------|------9----9---------7---------9---------|
D|------9----%----9----9----9----0-----|-8----7----5-----------------------------|------9----9---------7---------9---------|
A|-2-----------------------------------|----------------7------------------------|------7----7---------5---------7---------|
E|-0-----------------------------------|---------------------6----5----3----0----|-0--------------7---------0---------0----|

E|-----------------------------------------|---------|
B|-----------------------------------------|---------|
G|-----------------------------------------|---------|
D|-8----7----5------------------------2----|-2-------|
A|----------------7-------------------2----|-2-------|
E|---------------------6----5----3----0----|-0-------|
Guns N' Roses - it 's so easy (4)
Guns N' Roses - it_'s so easy (4).gp3