Guns N' Roses - Knockin ' on Heaven 's Door (3)

Guns N Roses



Title: Knocking' on Heaven's Door
Album: 
Artist: 
Author: Gun's n Roses

Track 1: Guitar 1
E|-------3---------------------------2---0---------------|-----------------------------0-----------------------------------|
B|-3---------3-------3-----------3-----------3-------3---|-----------------1-----------------------1-----------------------|
G|-0-------------0-----------2-------------------2-------|-0-----------0-------0---------------0-------2---0-----------0---|
D|-0---------------------0-------------------------------|-0---2-------------------2-------2---------------0---2-----------|
A|-------------------------------------------------------|---------3-----------------------------------------------3-------|
E|-3-----------------------------------------------------|-----------------------------------------------------------------|

E|-----------3---------------------------2---0---------------|-----------------------------------------------------------------|
B|-3-------------3-------3-----------3-----------3-------0---|-------------1---------------1-----------1-------1---1---1---1---|
G|-0----0------------0-----------2-------------------2-------|---------0-------0-------------------0-------0---0---0---0---0---|
D|-0-------------------------0-------------------------------|-----2---------------2-----------2---------------2---2---2---2---|
A|-----------------------------------------------------------|-3-----------------------3-----------------------3---3---3---3---|
E|-3---------------------------------------------------------|-----------------------------------------------------------------|

E|---------|---------|---------|---------|-------3---------------2-----------2---0---------------|
B|---------|---------|---------|---------|-3---------3-------3---3-------3-----------3-------0---|
G|-%-------|-%-------|-%-------|-%-------|-0-------------0-------2---2-------------------2-------|
D|-%-------|-%-------|-%-------|-%-------|-0-------------0-------0-------------------------------|
A|---------|---------|---------|---------|-------------------------------------------------------|
E|---------|---------|---------|---------|-3-----------------------------------------------------|

E|-----------------------------0-------------------------------------|-------3---------------------------2---0---------------|
B|-1-----------0---1-----------------------1-------------------------|-3---------3-------3-----------3-----------3-------0---|
G|-2-------2-----------2---------------2-------2---------0-------0---|-0-------------0-----------2-------------------2-------|
D|-2---2-------------------2-------2---------------0--2------2-------|-0---------------------0-------------------------------|
A|-------------------------------------------------------------------|-------------------------------------------------------|
E|-------------------------------------------------------------------|-3-----------------------------------------------------|

E|-----------------------------------------------------------|-------3---------------2-----------2---0---------------|
B|-1--------1----------------------------1-------------------|-3---------3-------3---3-------3-----------3-------0---|
G|-0----0-------0--------------------0-------0---------------|-0-------------0-------2---2-------------------2-------|
D|-2----------------2-------2--------------------2-------0---|-0-------------0-------0-------------------------------|
A|-3--------------------3-------3--------------------3-------|-------------------------------------------------------|
E|-----------------------------------------------------------|-3-----------------------------------------------------|

E|-----------------------------3---3-----------0---0------------|-------3------------------------2---0---------------|
B|-1-----------0---1-------------------1---------------1---0----|-3---------3-------3---3----3-----------3-------0---|
G|-2-------2-----------2-------------------2--------------------|-0-------------0-------2--------------------2-------|
D|-2---2-------------------2------------------------------------|-0---------------------0----------------------------|
A|-0------------------------------------------------------------|----------------------------------------------------|
E|--------------------------------------------------------------|-3--------------------------------------------------|

E|-------------------------------------------------------------------|----------------------------|
B|-1-----------1---------------1---------------1-----------------0---|----------------------------|
G|-0-------0---------------0---------------0-------------0-----------|----------------7-----7-----|
D|-2---2---------------2---------------2-----------0--2------0-------|-5------X---X---7-----7-----|
A|-3---------------3---------------3---------------------------------|-5------X---X---5-----5-----|
E|-------------------------------------------------------------------|-3------X---X---------------|

E|------------------------------------------|----------------------------|--------------------------------------------------|
B|------------------------------------------|----------------------------|--------------------------------------------------|
G|-5------5---5---5---X--X--5---5---5---X---|----------------7-----7-----|-5-----5-----X--X--5---5---5---X--X--5---5---5----|
D|-5------5---5---5---X--X--5---5---5---X---|-5------X---X---7-----7-----|-5-----5-----X--X--5---5---5---X--X--5---5---5----|
A|-3------3---3---3---X--X--3---3---3---X---|-5------X---X---5-----5-----|-3-----3-----X--X--3---3---3---X--X--3---3---3----|
E|------------------------------------------|-3------X---X---------------|--------------------------------------------------|

E|----------------------------|---------------------------------------------------------|
B|----------------------------|---------------------------------------------------------|
G|----------------7-----7-----|-5-----5-----X--X--5---5---X--X--X--X--5---5---5---X--X--|
D|-5------5---5---7-----7-----|-5-----5-----X--X--5---5---X--X--X--X--5---5---5---X--X--|
A|-5------5---5---5-----5-----|-3-----3-----X--X--3---3---X--X--X--X--3---3---3---X--X--|
E|-3------3---3---------------|---------------------------------------------------------|

E|---------------|---------|-3------2------|-0-------|-3------2------|-0-------|-3------2------|
B|---------------|---------|-3------3------|-1-------|-3------3------|-1-------|-3------3------|
G|--------7------|-5-------|-0------2------|-0-------|-0------2------|-0-------|-0------2------|
D|-5------7------|-5-------|-0------0------|-2-------|-0------0------|-2-------|-0------0------|
A|-5------5------|-3-------|-2-------------|-3-------|-2-------------|-3-------|-2-------------|
E|-3-------------|---------|-3-------------|---------|-3-------------|---------|-3-------------|

E|-0-------|-3------2------|-0-------|-------3---------------2-----------2---0---------------|
B|-1-------|-3------3------|-1-------|-3---------3-------3---3-------3-----------3-------0---|
G|-0-------|-0------2------|-0-------|-0-------------0-------2---2-------------------2-------|
D|-2-------|-0------0------|-2-------|-0-------------0-------0-------------------------------|
A|-3-------|-2-------------|-3-------|-------------------------------------------------------|
E|---------|-3-------------|---------|-3-----------------------------------------------------|

E|-----------------------------0-------------------------------------|-------3---------------------------2---0---------------|
B|-1-----------0---1-----------------------1-------------------------|-3---------3-------3---3-------3-----------3-------0---|
G|-2-------2-----------2---------------2-------2---------0-------0---|-0-------------0-------2---2-------------------2-------|
D|-2---2-------------------2-------2---------------0--2------2-------|-0---------------------0-------------------------------|
A|-------------------------------------------------------------------|-------------------------------------------------------|
E|-------------------------------------------------------------------|-3-----------------------------------------------------|

E|-------------------------------------------------------------------|-------3---------------2--------3---2---0-----------|
B|-1--------1--------------------------------------------------------|-3---------3-------3---3----3---------------3---0---|
G|-0----0-------0--------0---------0---------0---------0---------0---|-0-------------0-------2----------------------------|
D|-2-------------------------0--2------0--2------0--2------0--2------|-0-------------0-------0----------------------------|
A|-3-----------------3-----------------------------------------------|----------------------------------------------------|
E|-------------------------------------------------------------------|-3--------------------------------------------------|

E|-----------------------------0-----------------------------------|-------3---------------------------2---0---------------|
B|-1-----------0---1-----------------------1-------1---0-----------|-3---------3-------3-----------3-----------3-------0---|
G|-2-------2-----------2---------------2-------2-----------2---0---|-0-------------0---2-------2-------------------2-------|
D|-2---2-------------------2-------2-------------------------------|-0-----------------0---0-------------------------------|
A|-----------------------------------------------------------------|-------------------------------------------------------|
E|-----------------------------------------------------------------|-3-----------------------------------------------------|

E|-----------------------------------------------------------------|----------------------------|
B|-1-----------1---------------1---------------1---------------0---|----------------------------|
G|-0-------0---------------0---------------0---------------0-------|----------------7-----7-----|
D|-2---2---------------2---------------2---------------2-----------|-5------X---X---7-----7-----|
A|-3---------------3---------------3---------------3---------------|-5------X---X---5-----5-----|
E|-----------------------------------------------------------------|-3------X---X---------------|

E|------------------------------------------|----------------------------|--------------------------------------------------|
B|------------------------------------------|----------------------------|--------------------------------------------------|
G|-5------5---5---5---X--X--5---5---5---X---|----------------7-----7-----|-5-----5-----X--X--5---5---5---X--X--5---5---5----|
D|-5------5---5---5---X--X--5---5---5---X---|-5------X---X---7-----7-----|-5-----5-----X--X--5---5---5---X--X--5---5---5----|
A|-3------3---3---3---X--X--3---3---3---X---|-5------X---X---5-----5-----|-3-----3-----X--X--3---3---3---X--X--3---3---3----|
E|------------------------------------------|-3------X---X---------------|--------------------------------------------------|

E|----------------------------|---------------------------------------------------------|
B|----------------------------|---------------------------------------------------------|
G|----------------7-----7-----|-5-----5-----X--X--5---5---X--X--X--X--5---5---5---X--X--|
D|-5------5---5---7-----7-----|-5-----5-----X--X--5---5---X--X--X--X--5---5---5---X--X--|
A|-5------5---5---5-----5-----|-3-----3-----X--X--3---3---X--X--X--X--3---3---3---X--X--|
E|-3------3---3---------------|---------------------------------------------------------|

E|------------------------|----------------------------|--------------------------------|
B|------------------------|----------------------------|--------------------------------|
G|-----------------7------|-5------5----5----5----5----|--------------------7-----7-----|
D|-5-----5----X----7------|-5------5----5----5----5----|-5-----5----X---X---7-----7-----|
A|-5-----5----X----5------|-3------3----3----3----3----|-5-----5----X---X---5-----5-----|
E|-3-----3----X-----------|----------------------------|-3-----3----X---X---------------|

E|-----------------------------------------------------|----------------------------------------------------|
B|-----------------------------------------------------|----------------------------------------------------|
G|-5----5----5----X---5---5---5---%---5---5----X---X---|--------------------X--X--7----7---7---7---7---7----|
D|-5----5----5----X---5---5---5---%---5---5----X---X---|-5----5----5----X---X--X--7----7---7---7---7---7----|
A|-3----3----3----X---3---3---3-------3---3----X---X---|-5----5----5----X---X--X--5----5---5---5---5---5----|
E|-----------------------------------------------------|-3----3----3----X-----------------------------------|

E|-----------------------------------------------------|-----------------------------------------------|
B|-----------------------------------------------------|-----------------------------------------------|
G|-5----5----5----X---5---5---5---%---5---5----X---5---|----------------X---X---7----X---X---7----7----|
D|-5----5----5----X---5---5---5---%---5---5----X---5---|-5---5-----5----X---X---7----X---X---7----7----|
A|-3----3----3----X---3---3---3-------3---3----X---3---|-5---5-----5----X---X---5----X---X---5----5----|
E|-----------------------------------------------------|-3---3-----3-----------------------------------|

E|-----------------------------------------------|---------------------------------|
B|-----------------------------------------------|---------------------------------|
G|-5-----5---5-----5---X---5---5---%---5----X----|-----------------7----7----7-----|
D|-5-----5---5-----5---X---5---5---%---5----X----|-5-----5----5----7----7----7-----|
A|-3-----3---3-----3---X---3---3-------3----X----|-5-----5----5----5----5----5-----|
E|-----------------------------------------------|-3-----3----3--------------------|

E|-----------------------------------------|--------------------------------7-------|
B|-5--------------5------------------------|------------------------------------X---|
G|-5---------5---------5----5----5----5----|-----------%-----7---7-----X------------|
D|-5----5------------------------5----5----|-5---5-----%-----7---5-----X------------|
A|-3-----------------------------3----3----|-5---5-----------5---5-----X------------|
E|-----------------------------------------|-3---3----------------------------------|

E|-----------------------------------------------------------------|---------------------------------------------7-------|
B|-----------------------------------------------------------------|----------------------------------------X--------X---|
G|-5---5---X---X---5---X---%---5---%---X---5---%---5---%---5---%---|------------------------7---7---X---X---X------------|
D|-5---5---X---X---5---X---%---5---%---X---5---%---5---%---5---%---|-5---5-----X----X---X---7---7---X---X---X------------|
A|-3---3---X---X---3---X-------3-------X---3-------3-------3-------|-5---5-----X----X---X---5---5---X---X----------------|
E|-----------------------------------------------------------------|-3---3-----X----X---X--------------------------------|

E|-----------------------------------------------------------------|---------------------------------------------7-------|
B|-----------------------------------------------------------------|----------------------------------------X--------X---|
G|-5---5---X---X---5---X---%---5---%---X---5---%---5---%---5---%---|------------------------7---7---X---X---X------------|
D|-5---5---X---X---5---X---%---5---%---X---5---%---5---%---5---%---|-5---5-----X----X---X---7---7---X---X---X------------|
A|-3---3---X---X---3---X-------3-------X---3-------3-------3-------|-5---5-----X----X---X---5---5---X---X----------------|
E|-----------------------------------------------------------------|-3---3-----X----X---X--------------------------------|

E|-----------------------------------------------------------------|-----------------------------------------------------|
B|-----------------------------------------------------------------|-----------------------------------------------------|
G|-5---5---X---X---5---X---%---5---%---X---5---%---5---%---5---%---|-----%------------------7---%---7---%---%----7---5---|
D|-5---5---X---X---5---X---%---5---%---X---5---%---5---%---5---%---|-5---%---5----X----X----7---%---7---%---%----7---5---|
A|-3---3---X---X---3---X-------3-------X---3-------3-------3-------|-5-------5----X----X----5-------5------------5---3---|
E|-----------------------------------------------------------------|-3-------3----X----X---------------------------------|

E|--------------------------------------------------------|---------------------------|
B|------X-------------------------------------------------|---------------------------|
G|-5----X---X---5----X---5---5---X---5---%---%----5---%---|--------------%-----%------|
D|-5----X---X---5----X---5---5---X---5---%---%----5---%---|-5---5---5----%-----%------|
A|-3--------X---3----X---3---3---X---3------------3-------|-5---5---5-----------------|
E|--------------------------------------------------------|-3---3---3-----------------|

E|---------|---------------|---------|---------------|---------|----------------------------------------------|
B|---------|---------------|---------|---------------|---------|----------------------------------------------|
G|-%-------|-%------%------|-%-------|-%------%------|-%-------|-%-----%----12---11--11--%----11--12--11--9---|
D|-%-------|-%------%------|-%-------|-%------%------|-%-------|-%-----%----12---12--12--%----12--12--12--10--|
A|---------|---------------|---------|---------------|---------|----------------------------------------------|
E|---------|---------------|---------|---------------|---------|----------------------------------------------|

E|--------------------|---------------|---------|----------------------------------------------|
B|--------------------|---------------|---------|----------------------------------------------|
G|-9-----%-----%------|-%------%------|-%-------|-%-----%----12---11--11--%----11--12--11--9---|
D|-10----%-----%------|-%------%------|-%-------|-%-----%----12---12--12--%----12--12--12--10--|
A|--------------------|---------------|---------|----------------------------------------------|
E|--------------------|---------------|---------|----------------------------------------------|

E|--------------------|---------------|---------|---------------|---------|-------------------------------------|
B|--------------------|---------------|---------|---------------|---------|-------------------------------------|
G|-9-----%-----%------|-%------%------|-%-------|-%------%------|-%-------|-------------7---7----7----7----7----|
D|-10----%-----%------|-%------%------|-%-------|-%------%------|-%-------|-5-----5-----7---7----7----7----7----|
A|--------------------|---------------|---------|---------------|---------|-5-----5-----5---5----5----5----5----|
E|--------------------|---------------|---------|---------------|---------|-3-----3-----------------------------|

E|--------------------------------------------|-----------------------------|--------------------------------------------|
B|--------------------------------------------|-----------------------------|--------------------------------------------|
G|-5-----5-----5---5---5---X--X--5---5---5----|-------------7-----7----7----|-5-----5-----5---5---5---X--X--5---5---5----|
D|-5-----5-----5---5---5---X--X--5---5---5----|-5-----5-----7-----7----7----|-5-----5-----5---5---5---X--X--5---5---5----|
A|-3-----3-----3---3---3---X--X--3---3---3----|-5-----5-----5-----5----5----|-3-----3-----3---3---3---X--X--3---3---3----|
E|--------------------------------------------|-3-----3---------------------|--------------------------------------------|

E|--------------------------------------------------|------------------------------------------------|
B|--------------------------------------------------|------------------------------------------------|
G|---------------------7----7---7---7---7---%---5---|-5----5----5-----5---5---5---X--X--5---5---5----|
D|-5----5----5----5----7----7---7---7---7---%---5---|-5----5----5-----5---5---5---X--X--5---5---5----|
A|-5----5----5----5----5----5---5---5---5-------3---|-3----3----3-----3---3---3---X--X--3---3---3----|
E|-3----3----3----3---------------------------------|------------------------------------------------|

E|---------------------------------|--------------------|-----------------------------------------|
B|---------------------------------|--------------------|-----------------------------------------|
G|-----------------7-----7----7----|-5-----5-----5------|-5----5----5-----5---5----5----5----5----|
D|-5-----5----5----7-----7----7----|-5-----5-----5------|-5----5----5-----5---5----5----5----5----|
A|-5-----5----5----5-----5----5----|-3-----3-----3------|-3----3----3-----3---3----3----3----3----|
E|-3-----3----3--------------------|--------------------|-----------------------------------------|

E|-----------------------|---------|---------|
B|---------------5-------|---------|---------|
G|---------------4-------|-%-------|-%-------|
D|-5------5------5-------|-%-------|-%-------|
A|-5------5--------------|---------|---------|
E|-3------3----------3---|---------|---------|
Guns N' Roses - Knockin ' on Heaven 's Door (3)
Guns N' Roses - Knockin_' on Heaven_'s Door (3).gp3