Guns N' Roses - Knockin ' On Heaven 's Door (4)

Guns N' Roses - Knockin ' On Heaven 's Door (4)

Guns N Roses



Title: Knockin' On Heaven's Door
Album: 
Artist: Guns N' Roses
Author: 

Track 1: Guitar 1
D#|-------------------------------|-------------------------------|-------------------------------|
A#|------12--------12--------12---|------11--------11--------11---|------10--------10--------10---|
F#|-------------------------------|-------------------------------|-------------------------------|
C#|-12--------12--------12--------|-11--------11--------11--------|-10--------10--------10--------|
G#|-------------------------------|-------------------------------|-------------------------------|
D#|-------------------------------|-------------------------------|-------------------------------|

D#|-------------------------------|------------------10-----------------|------------------10-----------------|
A#|------8---------8---------8----|----------12----------12--------12---|----------12----------12--------12---|
F#|-------------------------------|------0--------------------0---------|------0--------------------0---------|
C#|-9---------9---------9---------|-12-----------12---------------------|-12-----------12---------------------|
G#|-------------------------------|-------------------------------------|-------------------------------------|
D#|-------------------------------|-------------------------------------|-------------------------------------|

D#|------------------9------------------|------------------9------------------|------------------8------------------|
A#|----------10----------10--------10---|----------10----------10--------10---|----------10----------10--------10---|
F#|------0--------------------0---------|------0--------------------0---------|------0--------------------0---------|
C#|-11-----------11---------------------|-11-----------11---------------------|-10-----------10---------------------|
G#|-------------------------------------|-------------------------------------|-------------------------------------|
D#|-------------------------------------|-------------------------------------|-------------------------------------|

D#|------------------8------------------|------------------7------------------|------------------7------------------|
A#|----------10----------10--------10---|----------8-----------8---------8----|----------8-----------8---------8----|
F#|------0--------------------0---------|------0--------------------0---------|------0--------------------0---------|
C#|-10-----------10---------------------|-9------------9----------------------|-9------------9----------------------|
G#|-------------------------------------|-------------------------------------|-------------------------------------|
D#|-------------------------------------|-------------------------------------|-------------------------------------|

D#|------------------6------------------|------------------6------------------|------------------5------------------|
A#|----------8-----------8---------8----|----------8-----------8---------8----|----------6-----------6---------6----|
F#|------0--------------------0---------|------0--------------------0---------|------0--------------------0---------|
C#|-8------------8----------------------|-8------------8----------------------|-7------------7----------------------|
G#|-------------------------------------|-------------------------------------|-------------------------------------|
D#|-------------------------------------|-------------------------------------|-------------------------------------|

D#|------------------5------------------|------------------4------------------|-------------------------------|
A#|----------6-----------6---------6----|----------6-----------6---------6----|------5---------4---------3----|
F#|------0--------------------0---------|------0--------------------0---------|-------------------------------|
C#|-7------------7----------------------|-6------------6----------------------|-5---------4---------3---------|
G#|-------------------------------------|-------------------------------------|-------------------------------|
D#|-------------------------------------|-------------------------------------|-------------------------------|

D#|----------------------------------------|-----------------------------------------|
A#|--------------------1-------------------|-----------------------------------------|
F#|----------------0-------0-------0-------|------0--------------0---------0---------|
C#|-0----2---------------------2-----------|-3--------------3------------------------|
G#|-----------3------------------------1---|-----------1--------------1---------1----|
D#|----------------------------------------|-----------------------------------------|

D#|---------------|---------|---------|---------|---------|---------|---------|---------|
A#|---------------|---------|---------|---------|---------|---------|---------|---------|
F#|--------0------|-%-------|-%-------|-%-------|-%-------|-%-------|-%-------|-%-------|
C#|--------5------|-%-------|-%-------|-%-------|-%-------|-%-------|-%-------|-%-------|
G#|-3------3------|---------|---------|---------|---------|---------|---------|---------|
D#|---------------|---------|---------|---------|---------|---------|---------|---------|

D#|---------|---------|---------|---------|---------|---------|---------|---------|
A#|---------|---------|---------|---------|---------|---------|---------|---------|
F#|-%-------|-%-------|-%-------|-%-------|-%-------|-%-------|-%-------|-%-------|
C#|-%-------|-%-------|-%-------|-%-------|-%-------|-%-------|-%-------|-%-------|
G#|---------|---------|---------|---------|---------|---------|---------|---------|
D#|---------|---------|---------|---------|---------|---------|---------|---------|

D#|---------|---------|---------|---------|---------|---------|---------|---------|
A#|---------|---------|---------|---------|---------|---------|---------|---------|
F#|-%-------|-%-------|-%-------|-%-------|-%-------|-%-------|-%-------|-%-------|
C#|-%-------|-%-------|-%-------|-%-------|-%-------|-%-------|-%-------|-%-------|
G#|---------|---------|---------|---------|---------|---------|---------|---------|
D#|---------|---------|---------|---------|---------|---------|---------|---------|

D#|---------|---------|---------|---------|---------|---------|---------|---------|
A#|---------|---------|---------|---------|---------|---------|---------|---------|
F#|-%-------|-%-------|-%-------|-%-------|-%-------|-%-------|-%-------|-%-------|
C#|-%-------|-%-------|-%-------|-%-------|-%-------|-%-------|-%-------|-%-------|
G#|---------|---------|---------|---------|---------|---------|---------|---------|
D#|---------|---------|---------|---------|---------|---------|---------|---------|

D#|---------|---------|---------|---------|---------|---------|---------|---------|
A#|---------|---------|---------|---------|---------|---------|---------|---------|
F#|-%-------|-%-------|-%-------|-%-------|-%-------|-%-------|-%-------|-%-------|
C#|-%-------|-%-------|-%-------|-%-------|-%-------|-%-------|-%-------|-%-------|
G#|---------|---------|---------|---------|---------|---------|---------|---------|
D#|---------|---------|---------|---------|---------|---------|---------|---------|

D#|---------|---------|---------|---------|---------|---------|---------|---------|
A#|---------|---------|---------|---------|---------|---------|---------|---------|
F#|-%-------|-%-------|-%-------|-%-------|-%-------|-%-------|-%-------|-%-------|
C#|-%-------|-%-------|-%-------|-%-------|-%-------|-%-------|-%-------|-%-------|
G#|---------|---------|---------|---------|---------|---------|---------|---------|
D#|---------|---------|---------|---------|---------|---------|---------|---------|

D#|---------|---------|---------|---------|---------|---------|---------|---------|
A#|---------|---------|---------|---------|---------|---------|---------|---------|
F#|-%-------|-%-------|-%-------|-%-------|-%-------|-%-------|-%-------|-%-------|
C#|-%-------|-%-------|-%-------|-%-------|-%-------|-%-------|-%-------|-%-------|
G#|---------|---------|---------|---------|---------|---------|---------|---------|
D#|---------|---------|---------|---------|---------|---------|---------|---------|

D#|---------|---------|---------|---------|---------|---------|---------|---------|
A#|---------|---------|---------|---------|---------|---------|---------|---------|
F#|-%-------|-%-------|-%-------|-%-------|-%-------|-%-------|-%-------|-%-------|
C#|-%-------|-%-------|-%-------|-%-------|-%-------|-%-------|-%-------|-%-------|
G#|---------|---------|---------|---------|---------|---------|---------|---------|
D#|---------|---------|---------|---------|---------|---------|---------|---------|

D#|---------|---------|---------|---------|---------|---------|---------|---------|
A#|---------|---------|---------|---------|---------|---------|---------|---------|
F#|-%-------|-%-------|-%-------|-%-------|-%-------|-%-------|-%-------|-%-------|
C#|-%-------|-%-------|-%-------|-%-------|-%-------|-%-------|-%-------|-%-------|
G#|---------|---------|---------|---------|---------|---------|---------|---------|
D#|---------|---------|---------|---------|---------|---------|---------|---------|

D#|---------|---------|---------|---------|---------|---------|---------|---------|
A#|---------|---------|---------|---------|---------|---------|---------|---------|
F#|-%-------|-%-------|-%-------|-%-------|-%-------|-%-------|-%-------|-%-------|
C#|-%-------|-%-------|-%-------|-%-------|-%-------|-%-------|-%-------|-%-------|
G#|---------|---------|---------|---------|---------|---------|---------|---------|
D#|---------|---------|---------|---------|---------|---------|---------|---------|

D#|---------|---------|---------|---------|---------|---------|---------|---------|
A#|---------|---------|---------|---------|---------|---------|---------|---------|
F#|-%-------|-%-------|-%-------|-%-------|-%-------|-%-------|-%-------|-%-------|
C#|-%-------|-%-------|-%-------|-%-------|-%-------|-%-------|-%-------|-%-------|
G#|---------|---------|---------|---------|---------|---------|---------|---------|
D#|---------|---------|---------|---------|---------|---------|---------|---------|

D#|---------|---------|---------|---------|---------|
A#|---------|---------|---------|---------|---------|
F#|-%-------|-%-------|-%-------|-%-------|-%-------|
C#|-%-------|-%-------|-%-------|-%-------|-%-------|
G#|---------|---------|---------|---------|---------|
D#|---------|---------|---------|---------|---------|
Guns N' Roses - Knockin ' On Heaven 's Door (4)
Guns N' Roses - Knockin_' On Heaven_'s Door (4).gp3