Guns N' Roses - Knockin ' On Heaven 's Door (Live Version)

Guns N Roses



Title: Knockin On Heaven´┐Żs Door (Live)
Album: Live Era
Artist: Guns N Roses
Author: 

Track 1: Slash (Guitar - 12 Strings)
D#|--------------------------------------------|--------------------------------------------|
A#|------12-------12-------12--------12--------|------10-------10-------10--------10--------|
F#|--------------------------------------------|--------------------------------------------|
C#|-12--------12------12---------12-------12---|-11--------11------11---------11-------11---|
G#|--------------------------------------------|--------------------------------------------|
D#|--------------------------------------------|--------------------------------------------|

D#|-----------------------------------------------|--------------------------------------------|
A#|------10-------10------10--10--------10--------|------8--------8--------8---------8---------|
F#|-----------------------------------------------|--------------------------------------------|
C#|-10--------10------10-----------10--------10---|-9---------9--------9---------9--------9----|
G#|-----------------------------------------------|--------------------------------------------|
D#|-----------------------------------------------|--------------------------------------------|

D#|--------------------------------------------|--------------------------------------------|
A#|------12-------12-------12--------12--------|------10-------10-------10--------10--------|
F#|--------------------------------------------|--------------------------------------------|
C#|-12--------12------12---------12-------12---|-11--------11------11---------11-------11---|
G#|--------------------------------------------|--------------------------------------------|
D#|--------------------------------------------|--------------------------------------------|

D#|--------------------------------------------|--------------------------------------------|
A#|------10-------10-------10--------10--------|------8--------8--------8---------8---------|
F#|--------------------------------------------|--------------------------------------------|
C#|-10--------10------10---------10-------10---|-9---------9-------9----------9--------9----|
G#|--------------------------------------------|--------------------------------------------|
D#|--------------------------------------------|--------------------------------------------|

D#|--------------------------------------------------|-----------------------------------------------|
A#|-----12-------12-------12-------12-------12-------|------10-------10-------10-------10-------10---|
F#|--------------------------------------------------|-----------------------------------------------|
C#|---------12--------12------12--------12------12---|-11--------11------11--------11------11--------|
G#|-10-----------------------------------------------|-----------------------------------------------|
D#|--------------------------------------------------|-----------------------------------------------|

D#|-----------------------------------------------|-------------------------------------------|
A#|------10-------10-------10-------10-------10---|------8--------8-------8---8-----X---------|
F#|-----------------------------------------------|-------------------------------------------|
C#|-10--------10------10--------10------10--------|-9---------9-------9-----------------5-----|
G#|-----------------------------------------------|-------------------------------------------|
D#|-----------------------------------------------|-------------------------------------------|

D#|--------------10---------------------------10--------------|--------------9----------------------------9---------------|
A#|---------12-------12------12----------12-------12------12--|---------10-------10------10----------10-------10------10--|
F#|-----0----------------0-----------0----------------0-------|-----0----------------0-----------0----------------0-------|
C#|-12---------------------------12---------------------------|-11---------------------------11---------------------------|
G#|-----------------------------------------------------------|-----------------------------------------------------------|
D#|-----------------------------------------------------------|-----------------------------------------------------------|

D#|--------------8----------------------------8---------------|--------------7----------------------|
A#|---------10-------10------10----------10-------10------10--|---------8--------8-----------8------|
F#|-----0----------------0-----------0----------------0-------|-----0----------------0--------------|
C#|-10---------------------------10---------------------------|-9------------------------9----------|
G#|-----------------------------------------------------------|-------------------------------------|
D#|-----------------------------------------------------------|-------------------------------------|

D#|--------------------------------------------------|-----------------------------------------------|
A#|------8-----------8-----------8---------8---------|------6--------6--------6---8--------6---------|
F#|----------0---------------0-----------------------|-----------------------------------------------|
C#|-8------------8-------8------------8---------8----|-7---------7-------7------------7---------7----|
G#|--------------------------------------------------|-----------------------------------------------|
D#|--------------------------------------------------|-----------------------------------------------|

D#|--------------------------------------------|-----------------------------------------------------|
A#|------6--------6--------6---------6---------|-----5------------4------------3---------------------|
F#|--------------------------------------------|-----------------------------------------------------|
C#|-6---------6-------6---------6---------6----|-5-------5----4-------4----3-------3----0---2--------|
G#|--------------------------------------------|------------------------------------------------3----|
D#|--------------------------------------------|-----------------------------------------------------|

D#|-----------------------------------------|-----------------------------------------------------------------|
A#|------1----------------------------------|-----------------------------------------------------------------|
F#|-0---------0-------------------0---------|---------0-----------0-------------------0-----------0-----------|
C#|----------------2---------0---------0----|-----3-------3-----------3-------3-----------3-----------3-------|
G#|---------------------2-------------------|-1---------------1-----------1-------1-----------1-----------1---|
D#|-----------------------------------------|-----------------------------------------------------------------|

D#|----------------------|---------------|---------|---------|---------|---------|---------|
A#|----------------------|---------------|---------|---------|---------|---------|---------|
F#|---------0----0-------|-0------%------|-%-------|-%-------|-%-------|-%-------|-%-------|
C#|---------5----5-------|-5------%------|-%-------|-%-------|-%-------|-%-------|-%-------|
G#|-1---3---3----3-------|-3-------------|---------|---------|---------|---------|---------|
D#|----------------------|---------------|---------|---------|---------|---------|---------|

D#|---------|---------|---------|---------|---------|---------|---------|---------|
A#|---------|---------|---------|---------|---------|---------|---------|---------|
F#|-%-------|-%-------|-%-------|-%-------|-%-------|-%-------|-%-------|-%-------|
C#|-%-------|-%-------|-%-------|-%-------|-%-------|-%-------|-%-------|-%-------|
G#|---------|---------|---------|---------|---------|---------|---------|---------|
D#|---------|---------|---------|---------|---------|---------|---------|---------|

D#|---------|---------|---------|---------|---------|---------|---------|---------|
A#|---------|---------|---------|---------|---------|---------|---------|---------|
F#|-%-------|-%-------|-%-------|-%-------|-%-------|-%-------|-%-------|-%-------|
C#|-%-------|-%-------|-%-------|-%-------|-%-------|-%-------|-%-------|-%-------|
G#|---------|---------|---------|---------|---------|---------|---------|---------|
D#|---------|---------|---------|---------|---------|---------|---------|---------|

D#|---------|---------|---------|---------|---------|---------|---------|---------|
A#|---------|---------|---------|---------|---------|---------|---------|---------|
F#|-%-------|-%-------|-%-------|-%-------|-%-------|-%-------|-%-------|-%-------|
C#|-%-------|-%-------|-%-------|-%-------|-%-------|-%-------|-%-------|-%-------|
G#|---------|---------|---------|---------|---------|---------|---------|---------|
D#|---------|---------|---------|---------|---------|---------|---------|---------|

D#|---------|---------|---------|---------|---------|---------|---------|---------|
A#|---------|---------|---------|---------|---------|---------|---------|---------|
F#|-%-------|-%-------|-%-------|-%-------|-%-------|-%-------|-%-------|-%-------|
C#|-%-------|-%-------|-%-------|-%-------|-%-------|-%-------|-%-------|-%-------|
G#|---------|---------|---------|---------|---------|---------|---------|---------|
D#|---------|---------|---------|---------|---------|---------|---------|---------|

D#|---------|---------|---------|---------|---------|---------|---------|---------|
A#|---------|---------|---------|---------|---------|---------|---------|---------|
F#|-%-------|-%-------|-%-------|-%-------|-%-------|-%-------|-%-------|-%-------|
C#|-%-------|-%-------|-%-------|-%-------|-%-------|-%-------|-%-------|-%-------|
G#|---------|---------|---------|---------|---------|---------|---------|---------|
D#|---------|---------|---------|---------|---------|---------|---------|---------|

D#|---------|---------|---------|---------|---------|---------|---------|---------|
A#|---------|---------|---------|---------|---------|---------|---------|---------|
F#|-%-------|-%-------|-%-------|-%-------|-%-------|-%-------|-%-------|-%-------|
C#|-%-------|-%-------|-%-------|-%-------|-%-------|-%-------|-%-------|-%-------|
G#|---------|---------|---------|---------|---------|---------|---------|---------|
D#|---------|---------|---------|---------|---------|---------|---------|---------|

D#|---------|---------|---------|---------|---------|---------|---------|---------|
A#|---------|---------|---------|---------|---------|---------|---------|---------|
F#|-%-------|-%-------|-%-------|-%-------|-%-------|-%-------|-%-------|-%-------|
C#|-%-------|-%-------|-%-------|-%-------|-%-------|-%-------|-%-------|-%-------|
G#|---------|---------|---------|---------|---------|---------|---------|---------|
D#|---------|---------|---------|---------|---------|---------|---------|---------|

D#|---------|---------|---------|---------|---------|---------|---------|---------|
A#|---------|---------|---------|---------|---------|---------|---------|---------|
F#|-%-------|-%-------|-%-------|-%-------|-%-------|-%-------|-%-------|-%-------|
C#|-%-------|-%-------|-%-------|-%-------|-%-------|-%-------|-%-------|-%-------|
G#|---------|---------|---------|---------|---------|---------|---------|---------|
D#|---------|---------|---------|---------|---------|---------|---------|---------|

D#|---------|---------|---------|---------|---------|---------|---------|---------|
A#|---------|---------|---------|---------|---------|---------|---------|---------|
F#|-%-------|-%-------|-%-------|-%-------|-%-------|-%-------|-%-------|-%-------|
C#|-%-------|-%-------|-%-------|-%-------|-%-------|-%-------|-%-------|-%-------|
G#|---------|---------|---------|---------|---------|---------|---------|---------|
D#|---------|---------|---------|---------|---------|---------|---------|---------|

D#|---------|---------|---------|---------|---------|---------|---------|---------|
A#|---------|---------|---------|---------|---------|---------|---------|---------|
F#|-%-------|-%-------|-%-------|-%-------|-%-------|-%-------|-%-------|-%-------|
C#|-%-------|-%-------|-%-------|-%-------|-%-------|-%-------|-%-------|-%-------|
G#|---------|---------|---------|---------|---------|---------|---------|---------|
D#|---------|---------|---------|---------|---------|---------|---------|---------|

D#|---------|---------|---------|---------|---------|---------|---------|---------|
A#|---------|---------|---------|---------|---------|---------|---------|---------|
F#|-%-------|-%-------|-%-------|-%-------|-%-------|-%-------|-%-------|-%-------|
C#|-%-------|-%-------|-%-------|-%-------|-%-------|-%-------|-%-------|-%-------|
G#|---------|---------|---------|---------|---------|---------|---------|---------|
D#|---------|---------|---------|---------|---------|---------|---------|---------|

D#|---------|---------|---------|---------|---------|---------|---------|---------|
A#|---------|---------|---------|---------|---------|---------|---------|---------|
F#|-%-------|-%-------|-%-------|-%-------|-%-------|-%-------|-%-------|-%-------|
C#|-%-------|-%-------|-%-------|-%-------|-%-------|-%-------|-%-------|-%-------|
G#|---------|---------|---------|---------|---------|---------|---------|---------|
D#|---------|---------|---------|---------|---------|---------|---------|---------|

D#|---------|---------|---------|---------|---------|---------|---------|---------|
A#|---------|---------|---------|---------|---------|---------|---------|---------|
F#|-%-------|-%-------|-%-------|-%-------|-%-------|-%-------|-%-------|-%-------|
C#|-%-------|-%-------|-%-------|-%-------|-%-------|-%-------|-%-------|-%-------|
G#|---------|---------|---------|---------|---------|---------|---------|---------|
D#|---------|---------|---------|---------|---------|---------|---------|---------|

D#|---------|---------|---------|
A#|---------|---------|---------|
F#|-%-------|-%-------|-%-------|
C#|-%-------|-%-------|-%-------|
G#|---------|---------|---------|
D#|---------|---------|---------|
Guns N' Roses - Knockin ' On Heaven 's Door (Live Version)
Guns N' Roses - Knockin_' On Heaven_'s Door (Live Version).gp3