Guns N' Roses - Live And Let Die

Guns N Roses



Title: Live And Let Die
Album: Use Your Illusion 1
Artist: Guns N' Roses
Author: Paul and Linda McCartney

Track 1: Clean Guitar
D#|---------|-3-----------------------------------------|-0----------------------2---------2---------|
A#|---------|-3-----3----------------------3------------|-----------1-----------------3----4---------|
F#|-%-------|-4-----4--------------2---2--------2---0---|------0----0----0---0------------------4----|
C#|-%-------|-5-----5---------4-------------------------|-----------2------------0-------------------|
G#|---------|-5----------5----2-------------------------|-3------------------------------------------|
D#|---------|-3-----------------------------------------|--------------------------------------------|

D#|-3-----3--------------------------------|-----------0------------2-------------------------------|
A#|-3--------------0-------------3---------|--------------------0-----------3-------4---------------|
F#|-0----------0------------2----2----2----|------0---------0-----------2-------2-------2---2---0---|
C#|-0------------------4---------4---------|------------------------0-------------------------------|
G#|--------------------2-------------------|-3------------------------------------------------------|
D#|-3--------------------------------------|--------------------------------------------------------|

D#|-3-----3-------------------------2------------|-----------0-------------------------0---------|
A#|-3-----3--------0------------3------------0---|-----------1-------1---0-----------------------|
F#|-0-----0----0------------2------------2-------|------0--------0-----------2----2---------2----|
C#|-0-----0------------4-------------------------|---------------------------2-------------------|
G#|--------------------2-------------------------|-3-------------------------0-------------------|
D#|-3-----3--------------------------------------|-----------------------------------------------|

D#|-2------------2----------------|-0---0---1------1-----------|---------|---------|
A#|-3--------3--------------------|-3--------------------------|---------|---------|
F#|-2----2------------------------|-2--------------------%-----|-%-------|-%-------|
C#|-0-----------------0----0------|-0--------------------%-----|-%-------|-%-------|
G#|-------------------------------|----------------------------|---------|---------|
D#|-------------------------------|----------------------------|---------|---------|

D#|---------|--------|---------|---------|---------|---------|---------|---------|---------|
A#|---------|--------|---------|---------|---------|---------|---------|---------|---------|
F#|-%-------|-%------|-%-------|-%-------|-%-------|-%-------|-%-------|-%-------|-%-------|
C#|-%-------|-%------|-%-------|-%-------|-%-------|-%-------|-%-------|-%-------|-%-------|
G#|---------|--------|---------|---------|---------|---------|---------|---------|---------|
D#|---------|--------|---------|---------|---------|---------|---------|---------|---------|

D#|---------|---------|---------|---------|---------|---------|---------|---------|
A#|---------|---------|---------|---------|---------|---------|---------|---------|
F#|-%-------|-%-------|-%-------|-%-------|-%-------|-%-------|-%-------|-%-------|
C#|-%-------|-%-------|-%-------|-%-------|-%-------|-%-------|-%-------|-%-------|
G#|---------|---------|---------|---------|---------|---------|---------|---------|
D#|---------|---------|---------|---------|---------|---------|---------|---------|

D#|---------|---------|---------|---------|---------|-----------------------------------------------------|
A#|---------|---------|---------|---------|---------|------5---X---X---X---5---5---X----5----X---X---5----|
F#|-%-------|-%-------|-%-------|-%-------|-%-------|-%----5---X---X---X---5---5---X----5----X---X---5----|
C#|-%-------|-%-------|-%-------|-%-------|-%-------|-%----5---X---X---X---5---5---X----5----X---X---5----|
G#|---------|---------|---------|---------|---------|-----------------------------------------------------|
D#|---------|---------|---------|---------|---------|-----------------------------------------------------|

D#|--------------------------------------3---3--------3---3---|----------------------10--------------------------|
A#|------3---3---X---X---X---X---X---X---3---3--------3---3---|------7---7---X---X---10---12---10----------------|
F#|-%----4---4---X---X---X---X---X---X-----------%------------|-%----7---7---X---X--------12---10----------------|
C#|-%----5---5---X---X---X---X---X---X-----------%------------|-%----7---7---X---X------------------12---7---7---|
G#|-----------------------------------------------------------|--------------------------------------------------|
D#|-----------------------------------------------------------|--------------------------------------------------|

D#|---------------------------|---------|---------|---------|---------|---------|---------|
A#|---------------------------|---------|---------|---------|---------|---------|---------|
F#|-9-----X---X---10---10-----|-10------|-%-------|-%-------|-%-------|-%-------|-%-------|
C#|-9-----X---X---10---10-----|-10------|-%-------|-%-------|-%-------|-%-------|-%-------|
G#|-7-----X---X---8----8------|-8-------|---------|---------|---------|---------|---------|
D#|---------------------------|---------|---------|---------|---------|---------|---------|

D#|---------|---------|---------|-3-----3---------------------|-0---------0---------2----------------------------|
A#|---------|---------|---------|-3-----3---------------3-----|-----------------------------3-------4------------|
F#|-%-------|-%-------|-%-------|-0-----0----------2----------|------0---------0--------2-------2--------2-------|
C#|-%-------|-%-------|-%-------|-0-----0-----4---------------|---------------------0------------------------0---|
G#|---------|---------|---------|-------------2---------------|-3------------------------------------------------|
D#|---------|---------|---------|-3-----3---------------------|--------------------------------------------------|

D#|-3---------3--------------------------------|-0---------0------------2----------------------------|
A#|-3---------3------------3---------3---------|-----------1--------0-----------3-------4--------3---|
F#|-0----0----0----0---0---4----2---------2----|------0----0----0-----------2-------2--------2-------|
C#|-0---------0------------4-------------------|------------------------0----------------------------|
G#|------------------------2-------------------|-3---------------------------------------------------|
D#|-3------------------------------------------|-----------------------------------------------------|

D#|-------3--------------------------------------------|-------0-------------------------0------------|
A#|-3---------3-------0----------------3---------------|----------------0-----------------------------|
F#|-0-------------0----------------2-------2-------0---|-0----------0------------2------------2---0---|
C#|-0--------------------------4---------------4-------|--------------------2--------2----------------|
G#|-----------------------2----------------------------|-3------------------0-------------------------|
D#|-3--------------------------------------------------|----------------------------------------------|

D#|----------------------------|-0---0---1------1-----------|---------|---------|---------|
A#|-------3--------------------|-3--------------------------|---------|---------|---------|
F#|-2---------2----------------|-2--------------------%-----|-%-------|-%-------|-%-------|
C#|-0--------------0----0------|-0--------------------%-----|-%-------|-%-------|-%-------|
G#|----------------------------|----------------------------|---------|---------|---------|
D#|----------------------------|----------------------------|---------|---------|---------|

D#|--------|---------|---------|---------|---------|---------|---------|---------|---------|
A#|--------|---------|---------|---------|---------|---------|---------|---------|---------|
F#|-%------|-%-------|-%-------|-%-------|-%-------|-%-------|-%-------|-%-------|-%-------|
C#|-%------|-%-------|-%-------|-%-------|-%-------|-%-------|-%-------|-%-------|-%-------|
G#|--------|---------|---------|---------|---------|---------|---------|---------|---------|
D#|--------|---------|---------|---------|---------|---------|---------|---------|---------|

D#|---------|
A#|---------|
F#|-%-------|
C#|-%-------|
G#|---------|
D#|---------|
Guns N' Roses - Live And Let Die
Guns N' Roses - Live And Let Die.gp3