Guns N' Roses - Live And Let Die (2)

Guns N Roses



Title: Live And Let Die
Album: 1991 Use Your Illusion 1
Artist: Guns N' Roses
Author: Paul and Linda McCartney

Track 1: Voice1 (intro)
E|---------|---------------2---6-----7--9---------11--13----------|-11---------9---7----------7---6---4---------|
B|---------|-----------2--------------------------------------14--|----------------------9----------------------|
G|-%-------|-%-----%--------------%----------%------------%-------|------%------------%--10----------------%----|
D|-%-------|-%-----%--------------%----------%------------%-------|------%------------%--------------------%----|
A|---------|------------------------------------------------------|---------------------------------------------|
E|---------|------------------------------------------------------|---------------------------------------------|

E|---------------14----14--11----------------9-------|------------------------|-------------------------------9-------11------13----13--|
B|-------------------------13--------14--11----------|-11---------------------|-------------------7---9---------------------------------|
G|-%-----%---3------%-----------%----------------%---|-----11----%------%-----|-%-----%-------6-------13---%-----%---------%-----%------|
D|-%-----%----------%-----------%----------------%---|-----------%------%-----|-%-----%---8----------------%-----%---------%-----%------|
A|---------------------------------------------------|------------------------|---------------------------------------------------------|
E|---------------------------------------------------|------------------------|---------------------------------------------------------|

E|-14---11----11------9-------------------------16---14--13----|-13---14------14--16----------------------|
B|--------------------------14--16---16------------------------|----------------------14----14------------|
G|---------%-----%-------%--18----------%----%--------------%--|----------%---------------------%-----%---|
D|---------%-----%-------%--------------%----%--------------%--|----------%---------------------%-----%---|
A|-------------------------------------------------------------|------------------------------------------|
E|-------------------------------------------------------------|------------------------------------------|

E|------------------------------------|---------------------------|---------11--9-------------|
B|------------------16--14------------|---------------------------|-------------------10------|
G|-%------%----------------%--13--%---|-13--11----11--%------%----|-%--------------%-------%--|
D|-%------%----------------%--14--%---|---------------%------%----|-%--------------%-------%--|
A|--------------16--------------------|---------------------------|---------------------------|
E|------------------------------------|---------------------------|---------------------------|

E|-----------------------------|--------|---------|---------|---------|---------|---------|
B|-9---7-----7-----------------|--------|---------|---------|---------|---------|---------|
G|--------------%------%----%--|-%------|-%-------|-%-------|-%-------|-%-------|-%-------|
D|--------------%------%----%--|-%------|-%-------|-%-------|-%-------|-%-------|-%-------|
A|-----------------------------|--------|---------|---------|---------|---------|---------|
E|-----------------------------|--------|---------|---------|---------|---------|---------|

E|---------|---------|---------|---------|---------|---------|---------|---------|---------|
B|---------|---------|---------|---------|---------|---------|---------|---------|---------|
G|-%-------|-%-------|-%-------|-%-------|-%-------|-%-------|-%-------|-%-------|-%-------|
D|-%-------|-%-------|-%-------|-%-------|-%-------|-%-------|-%-------|-%-------|-%-------|
A|---------|---------|---------|---------|---------|---------|---------|---------|---------|
E|---------|---------|---------|---------|---------|---------|---------|---------|---------|

E|---------|---------|---------|---------|---------|---------|---------|---------|---------|
B|---------|---------|---------|---------|---------|---------|---------|---------|---------|
G|-%-------|-%-------|-%-------|-%-------|-%-------|-%-------|-%-------|-%-------|-%-------|
D|-%-------|-%-------|-%-------|-%-------|-%-------|-%-------|-%-------|-%-------|-%-------|
A|---------|---------|---------|---------|---------|---------|---------|---------|---------|
E|---------|---------|---------|---------|---------|---------|---------|---------|---------|

E|---------|---------|---------|---------|---------|---------|---------|---------|---------|
B|---------|---------|---------|---------|---------|---------|---------|---------|---------|
G|-%-------|-%-------|-%-------|-%-------|-%-------|-%-------|-%-------|-%-------|-%-------|
D|-%-------|-%-------|-%-------|-%-------|-%-------|-%-------|-%-------|-%-------|-%-------|
A|---------|---------|---------|---------|---------|---------|---------|---------|---------|
E|---------|---------|---------|---------|---------|---------|---------|---------|---------|

E|---------|---------|---------|---------|---------|---------|---------|---------|---------|
B|---------|---------|---------|---------|---------|---------|---------|---------|---------|
G|-%-------|-%-------|-%-------|-%-------|-%-------|-%-------|-%-------|-%-------|-%-------|
D|-%-------|-%-------|-%-------|-%-------|-%-------|-%-------|-%-------|-%-------|-%-------|
A|---------|---------|---------|---------|---------|---------|---------|---------|---------|
E|---------|---------|---------|---------|---------|---------|---------|---------|---------|

E|---------|---------|---------|--------|---------|---------|---------|---------|---------|
B|---------|---------|---------|--------|---------|---------|---------|---------|---------|
G|-%-------|-%-------|-%-------|-%------|-%-------|-%-------|-%-------|-%-------|-%-------|
D|-%-------|-%-------|-%-------|-%------|-%-------|-%-------|-%-------|-%-------|-%-------|
A|---------|---------|---------|--------|---------|---------|---------|---------|---------|
E|---------|---------|---------|--------|---------|---------|---------|---------|---------|

E|---------|---------|---------|---------|---------|
B|---------|---------|---------|---------|---------|
G|-%-------|-%-------|-%-------|-%-------|-%-------|
D|-%-------|-%-------|-%-------|-%-------|-%-------|
A|---------|---------|---------|---------|---------|
E|---------|---------|---------|---------|---------|
Guns N' Roses - Live And Let Die (2)
Guns N' Roses - Live And Let Die (2).gp3