Guns N' Roses - Mr Brownstone

Guns N' Roses - Mr Brownstone

Guns N Roses



Title: Mr Brownstone
Album: 
Artist: 
Author: Guns N'Roses

Track 1: Guitar 1
D#|---------|---------|-----------------------------------------------------------------|
A#|---------|---------|-----------------------------------------------------------------|
F#|-%-------|-%-------|-----------------------------------------------------------------|
C#|-%-------|-%-------|-----------------------------------------------------------------|
G#|---------|---------|-----------------------------------------------------------------|
D#|---------|---------|-12--12--11--10--10--9---8---8---7---7---6---6---5---5---3---1---|

D#|--------------------------------------------------------|-------------------------------------------------------|
A#|--------------------------------------------------------|-------------------------------------------------------|
F#|--------------------------------------------------------|-------------------------------------------------2-----|
C#|--------------------------------------------------------|-------------------------------------------------2-----|
G#|--------------------------------------------------------|-------------2---0---------------2---2-----------0-----|
D#|-0---0---1---1---1---2---2---3---5---6---7----12---0----|-0---3---4-----------0---3---4---0---0---3---4---------|

D#|-------------------------------------------------------|-------------------------------------------------------|
A#|-3---2---0---------------------------------------------|-------------------------------------------------------|
F#|-------------2---0---%---------------------------------|-------------------------------------------------2-----|
C#|---------------------%---2---0-------------------2-----|-------------------------------------------------2-----|
G#|---------------------------------2---0-----------2-----|-------------2---0---------------2---2-----------0-----|
D#|-----------------------------------------3---4---0-----|-0---3---4-----------0---3---4---0---0---3---4---------|

D#|---------------------------------|-------------------------------------------------------|
A#|-3-------------------------------|-------------------------------------------------------|
F#|-2-----2---2---------------------|-------------------------------------------------2-----|
C#|-0-----2---2---------------------|-------------------------------------------------2-----|
G#|-------0---0----2----2-----------|-------------2---0---------------2---2-----------0-----|
D#|--------------------------3------|-0---3---4-----------0---3---4---0---0---3---4---------|

D#|-------------------------------------------------------|-------------------------------------------------------|
A#|-3---2---0---------------------------------------------|-------------------------------------------------------|
F#|-------------2---0---%---------------------------------|-------------------------------------------------2-----|
C#|---------------------%---2---0-------------------2-----|-------------------------------------------------2-----|
G#|---------------------------------2---0-----------2-----|-------------2---0---------------2---2-----------0-----|
D#|-----------------------------------------3---4---0-----|-0---3---4-----------0---3---4---0---0---3---4---------|

D#|---------------------------------|----------------------------------------------------------|
A#|-3-------------------------------|----------------------------------------------------------|
F#|-2-----2---2---------------------|----------------------------------------------------------|
C#|-0-----2---2---------------------|----------------------------------------5-------5---7-----|
G#|-------0---0----2----2-----------|-5--7--7---X---5---5---X---7----7---7-------7-------------|
D#|--------------------------3------|----------------------------------------------------------|

D#|---------------------------------------------------|----------------------------------------------------------|
A#|---------------------------------------------------|----------------------------------------------------------|
F#|---------------------------------------------------|----------------------------------------------------------|
C#|-5--7--7---X---5---5---X---5----5----5-------------|----------------------------------------5-------5---7-----|
G#|-----------------------------------------4---7-----|-5--7--7---X---5---5---X---7----7---7-------7-------------|
D#|---------------------------------------------------|----------------------------------------------------------|

D#|---------------------------------------------------|-------------------------------|
A#|-------------------------------------8-------5-----|-------------------------------|
F#|-----------------------------------------6---------|-4-----2---2---%---4----4------|
C#|-5--7--7---X---5---5---X---5----5------------------|-5-----3---3---%---5----5------|
G#|---------------------------------------------------|-5-----3---3-------5----5------|
D#|---------------------------------------------------|-3-----1---1-------3----3------|

D#|-------------------------------|-------------------------------|-----------------------------------------------|
A#|-5-----3---3-------5----5------|-7-----5---5-------7----7------|-----------------------------------------------|
F#|-5-----3---3---%---5----5------|-7-----5---5---%---7----7------|---------------------------------------7---9---|
C#|-5-----3---3---%---5----5------|-7-----5---5---%---7----7------|-------4---4----5----5----6----7---9-----------|
G#|-3-----1---1-------3----3------|-5-----3---3-------5----5------|-5---------------------------------------------|
D#|-------------------------------|-------------------------------|-----------------------------------------------|

D#|--------------------------------------------------|--------------------------------------------------|
A#|--------------------------------------------------|--------------------------------------------------|
F#|--------------------------------------------------|--------------------------------------------------|
C#|--------------------------------------------------|---------------------5----5-----------------------|
G#|-7----7----X---7-----7----X---7---7-------5---7---|-7----7----X---7--------------7---7-------5---7---|
D#|-0----0----X---0----------------------7-----------|--------------------------------------7-----------|

D#|--------------------------------------------------|---------------------------------------|
A#|--------------------------------------------------|---------------------------------------|
F#|--------------------------------------------------|---------------------------------------|
C#|---------------------7---7----5---5---------------|---------------------------------------|
G#|-7----7----X---7--------------------------5---7---|-7-----5-----4----2--------0-----------|
D#|--------------------------------------7-----------|-----------------------3-------3---0---|

D#|--------------------------------------------------------|--------------------------------------------------------|
A#|--------------------------------------------------------|--------------------------------------------------------|
F#|--------------------------------------------------------|--------------------------------------------------------|
C#|-9----X---7---7---X---9----X---X------------------------|-7----X---5---5---X---7----X---X------------------------|
G#|-9----X---7---7---X---9----X---X---5---6---9----X---X---|-7----X---5---5---X---7----X---X---3---4---7----X---X---|
D#|-7----X---5---5---X---7----X---X---X---X---7----X---X---|-5----X---3---3---X---5----X---X---X---X---5----X---X---|

D#|--------------------------------------------------------|--------------------------------------------------------|
A#|--------------------------------------------------------|--------------------------------------------------------|
F#|--------------------------------------------------------|--------------------------------------------------------|
C#|-9----X---7---7---X---9----X---X------------------------|-7----X---5---5---X---7----X---X------------------------|
G#|-9----X---7---7---X---9----X---X---5---6---9----X---X---|-7----X---5---5---X---7----X---X---3---4---7----X---X---|
D#|-7----X---5---5---X---7----X---X---X---X---7----X---X---|-5----X---3---3---X---5----X---X---X---X---5----X---X---|

D#|--------------------------------------------------------|--------------------------------------------------------|
A#|--------------------------------------------------------|--------------------------------------------------------|
F#|--------------------------------------------------------|--------------------------------------------------------|
C#|-9----X---7---7---X---9----X---X------------------------|-7----X---5---5---X---7----X---X------------------------|
G#|-9----X---7---7---X---9----X---X---5---6---9----X---X---|-7----X---5---5---X---7----X---X---3---4---7----X---X---|
D#|-7----X---5---5---X---7----X---X---X---X---7----X---X---|-5----X---3---3---X---5----X---X---X---X---5----X---X---|

D#|--------------------------------------------------------|-----------------------------------------|
A#|--------------------------------------------------------|-----------------------------------------|
F#|--------------------------------------------------------|-----------------------------------------|
C#|-9----X---7---7---X---9----X---X------------------------|-7-----5---5----7----7-------------------|
G#|-9----X---7---7---X---9----X---X---5---6---9----X---X---|-7-----5---5----7----7----0----3---0-----|
D#|-7----X---5---5---X---7----X---X---X---X---7----X---X---|-5-----3---3----5----5-------------------|

D#|-------------------------------|-------------------------------|-------------------------------|
A#|-------------------------------|-5-----3---3-------5----5------|-7-----5---5-------7----7------|
F#|-4-----2---2---%---4----4------|-5-----3---3---%---5----5------|-7-----5---5---%---7----7------|
C#|-5-----3---3---%---5----5------|-5-----3---3---%---5----5------|-7-----5---5---%---7----7------|
G#|-5-----3---3-------5----5------|-3-----1---1-------3----3------|-5-----3---3-------5----5------|
D#|-3-----1---1-------3----3------|-------------------------------|-------------------------------|

D#|-----------------------------------------------|--------------------------------------------------|
A#|-----------------------------------------------|--------------------------------------------------|
F#|---------------------------------------7---9---|--------------------------------------------------|
C#|-------4---4----5----5----6----7---9-----------|--------------------------------------------------|
G#|-5---------------------------------------------|-7----7----X---7-----7----X---7---7-------5---7---|
D#|-----------------------------------------------|-0----0----X---0----------------------7-----------|

D#|--------------------------------------------------|--------------------------------------------------|
A#|--------------------------------------------------|--------------------------------------------------|
F#|--------------------------------------------------|--------------------------------------------------|
C#|---------------------5----5-----------------------|---------------------7---7----5---5---------------|
G#|-7----7----X---7--------------7---7-------5---7---|-7----7----X---7--------------------------5---7---|
D#|--------------------------------------7-----------|--------------------------------------7-----------|

D#|---------------------------------------|-----------------------------------------------------|
A#|---------------------------------------|-----------------------------------------------------|
F#|---------------------------------------|--------------------------------4----2---3-----------|
C#|---------------------------------------|-------4---4-------2----2-------4----3-------4---2---|
G#|-7-----5-----4----2--------0-----------|---------------4------------4---2--------------------|
D#|-----------------------3-------3---0---|-2---------------------------------------------------|

D#|-----------------------------------------------------|-----------------------------------------------------|
A#|-----------------------------------------------------|-----------------------------------------------------|
F#|--------------------------------2----0---1-----------|--------------------------------4----2---3-----------|
C#|-------2---2-------0----0-------2----0-------2---0---|-------4---4-------2----2-------4----3-------4---2---|
G#|---------------2------------2---0--------------------|---------------4------------4---2--------------------|
D#|-0---------------------------------------------------|-2---------------------------------------------------|

D#|-----------------------------------------------------|-----------------------------------------------------|
A#|-----------------------------------------------------|-----------------------------------------------------|
F#|--------------------------------2----0---1-----------|--------------------------------4----2---3-----------|
C#|-------2---2-------0----0-------2----0-------2---0---|-------4---4-------2----2-------4----3-------4---2---|
G#|---------------2------------2---0--------------------|---------------4------------4---2--------------------|
D#|-0---------------------------------------------------|-2---------------------------------------------------|

D#|-----------------------------------------------------|-------------------------------------------------|
A#|-----------------------------------------------------|-------------------------------------------------|
F#|--------------------------------2----0---1-----------|--------------------------------4----2--3--------|
C#|-------2---2-------0----0-------2----0-------2---0---|-------4---4-------2----2-------4----------4-----|
G#|---------------2------------2---0--------------------|---------------4------------4---2----------------|
D#|-0---------------------------------------------------|-2-----------------------------------------------|

D#|----------------------------|-------------------------------|-------------------------------|
A#|----------------------------|-------------------------------|-5-----3---3-------5----5------|
F#|-9-----7---7----9----9------|-4-----2---2---%---4----4------|-5-----3---3---%---5----5------|
C#|-9-----7---7----9----9------|-5-----3---3---%---5----5------|-5-----3---3---%---5----5------|
G#|-7-----5---5----7----7------|-5-----3---3-------5----5------|-3-----1---1-------3----3------|
D#|----------------------------|-3-----1---1-------3----3------|-------------------------------|

D#|-------------------------------|-------------------------------------|---------|
A#|-7-----5---5-------7----7------|-7-----6---6----4----4----3----3-----|---------|
F#|-7-----5---5---%---7----7------|-7-----6---6----4----4----2----0-----|-%-------|
C#|-7-----5---5---%---7----7------|-7-----6---6----4----4----0----0-----|-%-------|
G#|-5-----3---3-------5----5------|-5-----4---4----2----2----0----X-----|---------|
D#|-------------------------------|-------------------------------3-----|---------|

D#|-------------------------------------------------------|-------------------------------------------------------|
A#|-------------------------------------------------------|-3---2---0---------------------------------------------|
F#|-------------------------------------------------2-----|-------------2---0---%---------------------------------|
C#|-------------------------------------------------2-----|---------------------%---2---0-------------------2-----|
G#|-------------2---0---------------2---2-----------0-----|---------------------------------2---0-----------2-----|
D#|-0---3---4-----------0---3---4---0---0---3---4---------|-----------------------------------------3---4---0-----|

D#|-------------------------------------------------------|---------------------------------|
A#|-------------------------------------------------------|-3-------------------------------|
F#|-------------------------------------------------2-----|-2-----2---2---------------------|
C#|-------------------------------------------------2-----|-0-----2---2---------------------|
G#|-------------2---0---------------2---2-----------0-----|-------0---0----2----2-----------|
D#|-0---3---4-----------0---3---4---0---0---3---4---------|--------------------------3------|

D#|----------------------------------------------------------|---------------------------------------------------|
A#|----------------------------------------------------------|---------------------------------------------------|
F#|----------------------------------------------------------|---------------------------------------------------|
C#|----------------------------------------5-------5---7-----|-5--7--7---X---5---5---X---5----5----5-------------|
G#|-5--7--7---X---5---5---X---7----7---7-------7-------------|-----------------------------------------4---7-----|
D#|----------------------------------------------------------|---------------------------------------------------|

D#|----------------------------------------------------------|---------------------------------------------------|
A#|----------------------------------------------------------|-------------------------------------8-------5-----|
F#|----------------------------------------------------------|-----------------------------------------6---------|
C#|----------------------------------------5-------5---7-----|-5--7--7---X---5---5---X---5----5------------------|
G#|-5--7--7---X---5---5---X---7----7---7-------7-------------|---------------------------------------------------|
D#|----------------------------------------------------------|---------------------------------------------------|

D#|--------------------------------------------------------|--------------------------------------------------------|
A#|--------------------------------------------------------|--------------------------------------------------------|
F#|--------------------------------------------------------|--------------------------------------------------------|
C#|-9----X---7---7---X---9----X---X------------------------|-7----X---5---5---X---7----X---X------------------------|
G#|-9----X---7---7---X---9----X---X---5---6---9----X---X---|-7----X---5---5---X---7----X---X---3---4---7----X---X---|
D#|-7----X---5---5---X---7----X---X---X---X---7----X---X---|-5----X---3---3---X---5----X---X---X---X---5----X---X---|

D#|--------------------------------------------------------|--------------------------------------------------------|
A#|--------------------------------------------------------|--------------------------------------------------------|
F#|--------------------------------------------------------|--------------------------------------------------------|
C#|-9----X---7---7---X---9----X---X------------------------|-7----X---5---5---X---7----X---X------------------------|
G#|-9----X---7---7---X---9----X---X---5---6---9----X---X---|-7----X---5---5---X---7----X---X---3---4---7----X---X---|
D#|-7----X---5---5---X---7----X---X---X---X---7----X---X---|-5----X---3---3---X---5----X---X---X---X---5----X---X---|

D#|--------------------------------------------------------|--------------------------------------------------------|
A#|--------------------------------------------------------|--------------------------------------------------------|
F#|--------------------------------------------------------|--------------------------------------------------------|
C#|-9----X---7---7---X---9----X---X------------------------|-7----X---5---5---X---7----X---X------------------------|
G#|-9----X---7---7---X---9----X---X---5---6---9----X---X---|-7----X---5---5---X---7----X---X---3---4---7----X---X---|
D#|-7----X---5---5---X---7----X---X---X---X---7----X---X---|-5----X---3---3---X---5----X---X---X---X---5----X---X---|

D#|--------------------------------------------------------|-----------------------------------------|
A#|--------------------------------------------------------|-----------------------------------------|
F#|--------------------------------------------------------|-----------------------------------------|
C#|-9----X---7---7---X---9----X---X------------------------|-7-----5---5----7----7-------------------|
G#|-9----X---7---7---X---9----X---X---5---6---9----X---X---|-7-----5---5----7----7----0----3---0-----|
D#|-7----X---5---5---X---7----X---X---X---X---7----X---X---|-5-----3---3----5----5-------------------|

D#|-------------------------------|-------------------------------|-------------------------------|
A#|-------------------------------|-5-----3---3-------5----5------|-7-----5---5-------7----7------|
F#|-4-----2---2---%---4----4------|-5-----3---3---%---5----5------|-7-----5---5---%---7----7------|
C#|-5-----3---3---%---5----5------|-5-----3---3---%---5----5------|-7-----5---5---%---7----7------|
G#|-5-----3---3-------5----5------|-3-----1---1-------3----3------|-5-----3---3-------5----5------|
D#|-3-----1---1-------3----3------|-------------------------------|-------------------------------|

D#|-----------------------------------------------|--------------------------------------------------|
A#|-----------------------------------------------|--------------------------------------------------|
F#|---------------------------------------7---9---|--------------------------------------------------|
C#|-------4---4----5----5----6----7---9-----------|--------------------------------------------------|
G#|-5---------------------------------------------|-7----7----X---7-----7----X---7---7-------5---7---|
D#|-----------------------------------------------|-0----0----X---0----------------------7-----------|

D#|--------------------------------------------------|--------------------------------------------------|
A#|--------------------------------------------------|--------------------------------------------------|
F#|--------------------------------------------------|--------------------------------------------------|
C#|---------------------5----5-----------------------|---------------------7---7----5---5---------------|
G#|-7----7----X---7--------------7---7-------5---7---|-7----7----X---7--------------------------5---7---|
D#|--------------------------------------7-----------|--------------------------------------7-----------|

D#|---------------------------------------|-------------------------------------------------------|
A#|---------------------------------------|-------------------------------------------------------|
F#|---------------------------------------|-------------------------------------------------2-----|
C#|---------------------------------------|-------------------------------------------------2-----|
G#|-7-----5-----4----2--------0-----------|-------------2---0---------------2---2-----------0-----|
D#|-----------------------3-------3---0---|-0---3---4-----------0---3---4---0---0---3---4---------|

D#|-------------------------------------------------------|-------------------------------------------------------|
A#|-3---2---0---------------------------------------------|-------------------------------------------------------|
F#|-------------2---0---%---------------------------------|-------------------------------------------------2-----|
C#|---------------------%---2---0-------------------2-----|-------------------------------------------------2-----|
G#|---------------------------------2---0-----------2-----|-------------2---0---------------2---2-----------0-----|
D#|-----------------------------------------3---4---0-----|-0---3---4-----------0---3---4---0---0---3---4---------|

D#|---------------------------------|-----------------------------------------------------------------|
A#|-3-------------------------------|-----------------------------------------------------------------|
F#|-2-----2---2---------------------|-------------4-------------------------------4-------------------|
C#|-0-----2---2---------------------|-----5---6-------7-------5---6-------5---6-------7-------5---6---|
G#|-------0---0----2----2-----------|-7-------------------7-----------7-------------------7-----------|
D#|--------------------------3------|-----------------------------------------------------------------|

D#|----------------------------------------------------|-----------------------------------------------------------------|
A#|----------------------------------------------------|-3---2---0-----------------------3---2---0-----------------------|
F#|-------------4--------------------------------------|-------------2---2---0-----------------------2---2---0-----------|
C#|-----5---6-------7-------5---6--------5---6---7-----|-------------------------2---0---------------------------2---0---|
G#|-7-------------------7-----------7------------------|-----------------------------------------------------------------|
D#|----------------------------------------------------|-----------------------------------------------------------------|

D#|-------------------------------------------------------|---------|---------|---------|
A#|-3---2---0---------------------------------------------|---------|---------|---------|
F#|-------------2---2---0---------------------------------|---------|---------|---------|
C#|-------------------------2---0-------------------2-----|-2-------|-2-------|-2-------|
G#|---------------------------------2---0-----------2-----|-2-------|-2-------|-2-------|
D#|-----------------------------------------3---3---0-----|-0-------|-0-------|-0-------|
Guns N' Roses - Mr Brownstone
Guns N' Roses - Mr Brownstone.gp3