Guns N' Roses - Nightrain

Guns N Roses



Title: Nightrain
Album: 
Artist: 
Author: Guns'N'Roses

Track 1: Guitar 1
D#|---------|---------|--------------X----3----|-3----3----2----0--------------0-----|
A#|---------|---------|------------------------|----------------0----7----5----5-----|
F#|-%-------|-2-------|-2------2---------------|-------------------------------------|
C#|-%-------|-2-------|-2------2---------------|-------------------------------------|
G#|---------|-0-------|-0------0---------------|-------------------------------------|
D#|---------|---------|------------------------|-------------------------------------|

D#|-0------------0----|-0----0----0-----0---------------|-------------------|-----------------------------|
A#|-5-------3----5----|-5----5----3-----3----1----1-----|-1-------X----3----|-3----3----1-----1-----0-----|
F#|-------------------|---------------------------------|-------------------|-----------------------------|
C#|-------------------|---------------------------------|-------------------|-----------------------------|
G#|-------------------|---------------------------------|-------------------|-----------------------------|
D#|-------------------|---------------------------------|-------------------|-----------------------------|

D#|-----------------------------|---------|-------------------|------3----2----0--------------0-----|
A#|-1-----0---------------------|---------|---------X----8----|-8--------------0----7----5----5-----|
F#|-------------2-----0----2----|-2-------|-2-----------------|-------------------------------------|
C#|-----------------------------|---------|-------------------|-------------------------------------|
G#|-----------------------------|---------|-------------------|-------------------------------------|
D#|-----------------------------|---------|-------------------|-------------------------------------|

D#|-0------------0----|-0----0----0-----0---------------|-------------------|-----------------------------|
A#|-5-------3----5----|-5----5----3-----3----1----1-----|-1-------X----3----|-3----3----1-----1-----0-----|
F#|-------------------|---------------------------------|-------------------|-----------------------------|
C#|-------------------|---------------------------------|-------------------|-----------------------------|
G#|-------------------|---------------------------------|-------------------|-----------------------------|
D#|-------------------|---------------------------------|-------------------|-----------------------------|

D#|-----------------------------|---------|---------|-----------------------------------------|
A#|-1-----0---------------------|---------|---------|-----------------------------------------|
F#|-------------2-----0----2----|-2-------|-%-------|-%----X----2----%----2----2----2----2----|
C#|-----------------------------|---------|-%-------|-%----X----2----%----2----2----2----2----|
G#|-----------------------------|---------|---------|------X----0---------0----0----0----0----|
D#|-----------------------------|---------|---------|-----------------------------------------|

D#|-----------------------------------------|-----------------------------------------|
A#|-----------------------------------------|-----------------------------------------|
F#|-2----X----2----%----2----2----2----2----|-2----X----2----%----2----2----2----2----|
C#|-2----X----2----%----2----2----2----2----|-2----X----2----%----2----2----2----2----|
G#|-0----X----0---------0----0----0----0----|-0----X----0---------0----0----0----0----|
D#|-----------------------------------------|-----------------------------------------|

D#|-----------------------------------------|-----------------------------------------|
A#|-----------------------------------------|-----------------------------------------|
F#|-2----X----2----%----2----2----2----2----|-2----X----2----%----2----2----2----2----|
C#|-2----X----2----%----2----2----2----2----|-2----X----2----%----2----2----2----2----|
G#|-0----X----0---------0----0----0----0----|-0----X----0---------0----0----0----0----|
D#|-----------------------------------------|-----------------------------------------|

D#|-----------------------------------------|-----------------------------------------|
A#|-----------------------------------------|-----------------------------------------|
F#|-2----X----2----%----2----2----2----2----|-2----X----2----%----2----2----2----2----|
C#|-2----X----2----%----2----2----2----2----|-2----X----2----%----2----2----2----2----|
G#|-0----X----0---------0----0----0----0----|-0----X----0---------0----0----0----0----|
D#|-----------------------------------------|-----------------------------------------|

D#|-----------------------------------------|-----------------------------------------|
A#|-----------------------------------------|-----------------------------------------|
F#|-2----X----2----%----2----2----2----2----|-2----X----2----%----2----2----2----2----|
C#|-2----X----2----%----2----2----2----2----|-2----X----2----%----2----2----2----2----|
G#|-0----X----0---------0----0----0----0----|-0----X----0---------0----0----0----0----|
D#|-----------------------------------------|-----------------------------------------|

D#|-----------------------------------------|-----------------------------------------|
A#|-----------------------------------------|-----------------------------------------|
F#|-2----X----2----%----2----2----2----2----|-2----X----2----%----2----2----2----2----|
C#|-2----X----2----%----2----2----2----2----|-2----X----2----%----2----2----2----2----|
G#|-0----X----0---------0----0----0----0----|-0----X----0---------0----0----0----0----|
D#|-----------------------------------------|-----------------------------------------|

D#|-----------------------------------------|-----------------------------------------|
A#|-----------------------------------------|-----------------------------------------|
F#|-2----X----2----%----2----2----2----2----|-2----X----2----%----2----2----2----2----|
C#|-2----X----2----%----2----2----2----2----|-2----X----2----%----2----2----2----2----|
G#|-0----X----0---------0----0----0----0----|-0----X----0---------0----0----0----0----|
D#|-----------------------------------------|-----------------------------------------|

D#|------------------------------------2----|-2-------|-2----------------------|-------------------------------------|
A#|------------------------------------3----|-3-------|-3-----------------8----|-8-----7----5----7----5----5----3----|
F#|-2----X----2----%----2----2----2----2----|-2-------|-2------%-----%----9----|-9-----7----5----7----5----5----4----|
C#|-2----X----2----%----2----2----2----0----|-0-------|-0------%-----%----7----|-7-----------------------------------|
G#|-0----X----0---------0----0----0---------|---------|------------------------|-------------------------------------|
D#|-----------------------------------------|---------|------------------------|-------------------------------------|

D#|---------------------------------|-------------------------|-------------------------|
A#|-1-----0-------------------------|-------------------------|-------------------------|
F#|-2-----0-----2----0---------2----|-2-----2-----2----2------|-2------2----2-----------|
C#|-----------------------2---------|-------------------------|--------------------7----|
G#|---------------------------------|-------------------------|--------------------7----|
D#|---------------------------------|-------------------------|--------------------5----|

D#|-----------------------------------------|-----------------------------------------|
A#|-----------------------------------------|-----------------------------------------|
F#|------X----2----%----2----2----2----2----|-2----X----2----%----2----2----2----2----|
C#|-7----X----2----%----2----2----2----2----|-2----X----2----%----2----2----2----2----|
G#|-7----X----0---------0----0----0----0----|-0----X----0---------0----0----0----0----|
D#|-5---------------------------------------|-----------------------------------------|

D#|-----------------------------------------|-----------------------------------------|
A#|-----------------------------------------|-----------------------------------------|
F#|-2----X----2----%----2----2----2----2----|-2----X----2----%----2----2----2----2----|
C#|-2----X----2----%----2----2----2----2----|-2----X----2----%----2----2----2----2----|
G#|-0----X----0---------0----0----0----0----|-0----X----0---------0----0----0----0----|
D#|-----------------------------------------|-----------------------------------------|

D#|-----------------------------------------|------------------------------------2----|
A#|-----------------------------------------|------------------------------------3----|
F#|-2----X----2----%----2----2----2----2----|-2----X----2----%----2----2----2----2----|
C#|-2----X----2----%----2----2----2----2----|-2----X----2----%----2----2----2----0----|
G#|-0----X----0---------0----0----0----0----|-0----X----0---------0----0----0---------|
D#|-----------------------------------------|-----------------------------------------|

D#|-2-------|-2-------2----3----|-3----3----2----0--------------0-----|-0------------0----|
A#|-3-------|-3-------3---------|----------------0----7----5----5-----|-5-------3----5----|
F#|-2-------|-2-------2---------|-------------------------------------|-------------------|
C#|-0-------|-0-------0---------|-------------------------------------|-------------------|
G#|---------|-------------------|-------------------------------------|-------------------|
D#|---------|-------------------|-------------------------------------|-------------------|

D#|-0----0----0-----0---------------|-------------------|-----------------------------|
A#|-5----5----3-----3----1----1-----|-1-------X----3----|-3----3----1-----1-----0-----|
F#|---------------------------------|-------------------|-----------------------------|
C#|---------------------------------|-------------------|-----------------------------|
G#|---------------------------------|-------------------|-----------------------------|
D#|---------------------------------|-------------------|-----------------------------|

D#|-----------------------------|-----------------------------------------|-----------------------------------------|
A#|-1-----0---------------------|-----------------------------------------|-----------------------------------------|
F#|-------------2-----0----2----|-----------------------------------------|-----------------------------------------|
C#|-----------------------------|-5----5----5----5----5----5----5----5----|-5----5----5----5----5----2----5----7----|
G#|-----------------------------|-5----5----5----5----5----5----5----5----|-5----5----5----5----5----2----5----7----|
D#|-----------------------------|-3----3----3----3----3----3----3----3----|-3----3----3----3----3----0----3----5----|

D#|-----------------------------------------|-----------------------------------------|
A#|-----------------------------------------|-----------------------------------------|
F#|------------------------------------2----|-2----------------------------------2----|
C#|-7--------------2---------2---------2----|-2--------------2---------2---------2----|
G#|-7----0----3----0----3----0---------0----|-0----0----3----0----3----0---------0----|
D#|-5-----------------------------3---------|-------------------------------3---------|

D#|-----------------------------------------|-----------------------------------------|
A#|-----------------------------------------|-----------------------------------------|
F#|-2----------------------------------2----|-2----------------------------------2----|
C#|-2--------------2---------2---------2----|-2--------------2---------2---------2----|
G#|-0----0----3----0----3----0---------0----|-0----0----3----0----3----0---------0----|
D#|-------------------------------3---------|-------------------------------3---------|

D#|-----------------------------------------|-----------------------------------------|
A#|-----------------------------------------|-----------------------------------------|
F#|-2----------------------------------2----|-2---------------------------------------|
C#|-2--------------2---------2---------2----|-2--------------2------------------------|
G#|-0----0----3----0----3----0---------0----|-0----0----3----0----3----0--------------|
D#|-------------------------------3---------|-------------------------------3----1----|

D#|-----------------------------------------|-----------------------------------------|
A#|-----------------------------------------|-----------------------------------------|
F#|-----------------------------------------|------------------------------------2----|
C#|-----------------------------------------|------------------------------------2----|
G#|-----------3----2----3----2----0---------|-----------3----2----3----2---------0----|
D#|-1----1-----------------------------3----|-3----3------------------------3---------|

D#|-----------------------------------------|-----------------------------------------|
A#|-----------------------------------------|-----------------------------------------|
F#|-2----------------------------------2----|-2----------------------------------2----|
C#|-2--------------2---------2---------2----|-2--------------2---------2---------2----|
G#|-0----0----3----0----3----0---------0----|-0----0----3----0----3----0---------0----|
D#|-------------------------------3---------|-------------------------------3---------|

D#|-----------------------------------------|-----------------------------------------|
A#|-----------------------------------------|-----------------------------------------|
F#|-2----------------------------------2----|-2----------------------------------2----|
C#|-2--------------2---------2---------2----|-2--------------2---------2---------2----|
G#|-0----0----3----0----3----0---------0----|-0----0----3----0----3----0---------0----|
D#|-------------------------------3---------|-------------------------------3---------|

D#|-----------------------------------------|-----------------------------------------|
A#|-----------------------------------------|------------------------------------3----|
F#|-2----------------------------------2----|-2----------------------------------2----|
C#|-2--------------2---------2---------2----|-2--------------2---------2---------0----|
G#|-0----0----3----0----3----0---------0----|-0----0----3----0----3----0--------------|
D#|-------------------------------3---------|-------------------------------3---------|

D#|---------|---------|-------------------------------7----7----|-----------------------------------------|
A#|-3-------|---------|------7---------7---------7----7----7----|------7---------7---------7----7----9----|
F#|-2-------|-%-------|-%---------9---------9-------------------|-9---------9---------9--------------9----|
C#|-0-------|-%-------|-%---------------------------------------|-----------------------------------------|
G#|---------|---------|-----------------------------------------|-----------------------------------------|
D#|---------|---------|-----------------------------------------|-----------------------------------------|

D#|-----------------------------|-----------------------10---|-10---9----7-----------------------------|
A#|-9-----9-----9-----7----9----|-7----9----7----------------|----------------10---9----7--------------|
F#|-9-----9-----9-----7----9----|-7----9----7------%---------|-------------------------------9----9----|
C#|-----------------------------|------------------%---------|-----------------------------------------|
G#|-----------------------------|----------------------------|-----------------------------------------|
D#|-----------------------------|----------------------------|-----------------------------------------|

D#|-----------------------------------------|-----------------------------------------|
A#|-----------------------------------------|-----------------------------------------|
F#|-9-----7---7----9----7-------------------|-----------------------------------------|
C#|--------------------------9----7----9----|-7----7----5----5----4----4----2----2----|
G#|-----------------------------------------|-----------------------------------------|
D#|-----------------------------------------|-----------------------------------------|

D#|-------------------------------------|-10---------------------10---|-10----10--------------------|
A#|-------------------------------------|-10----------10----10---10---|-10----10----10----10--------|
F#|-----------%---------%---------------|-9-----9-----9-----7----9----|-9-----9-----9-----7----11---|
C#|-0----4----%----5----%----6-----7----|-----------------------------|-----------------------------|
G#|------4---------5---------6-----7----|-----------------------------|-----------------------------|
D#|------2---------3---------4-----5----|-----------------------------|-----------------------------|

D#|-----------9----12-------------------|---------------------------------------10---|
A#|------10-------------12----10---12---|-12---12--10---------------------------10---|
F#|-11----------------------------------|--------------11---11---11---11-------------|
C#|-------------------------------------|----------------------------------12--------|
G#|-------------------------------------|--------------------------------------------|
D#|-------------------------------------|--------------------------------------------|

D#|-10---10------------------10----13---|-14---10------------------------------------|
A#|-10---10------------------10----12---|-13---10-------------------------------17---|
F#|-----------12---10---11--------------|-----------12----10--12---10--11--X---------|
C#|-------------------------------------|--------------------------------------------|
G#|-------------------------------------|--------------------------------------------|
D#|-------------------------------------|--------------------------------------------|

D#|-----14----------------------------------------------------|-------------------------------|
A#|-17------17--14--------------------------------------------|-------------------------------|
F#|-----------------16---14------16--14-----------------------|-------------------------------|
C#|--------------------------16----------16--14---------------|-------------------------------|
G#|----------------------------------------------16--14--13---|-13-------------13------12-----|
D#|-----------------------------------------------------------|--------14--14------14---------|

D#|---------------------------------|---------------------------------|-----------------------------|
A#|-7-----7----6----7-----7----6----|-7-----7---------7----9-----10---|-10----9-----9----7-----5----|
F#|---------------------------------|---------------------------------|-----------------------------|
C#|-7-----7----6----7-----7----6----|-7-----7----0----7----9-----11---|-11----9-----9----7-----6----|
G#|---------------------------------|---------------------------------|-----------------------------|
D#|---------------------------------|---------------------------------|-----------------------------|

D#|-----------------------------|-------4----5--------------------|--------------------------------------------|
A#|-5----5----4-----2-----------|-----------------5-----2----5----|--------------------------------------------|
F#|------------------------4----|-4-------------------------------|-4-----2---4----2----4----4---2-------------|
C#|-6----6----4-----2-----------|---------------------------------|----------------------------------4----4----|
G#|-----------------------------|---------------------------------|--------------------------------------------|
D#|-----------------------------|---------------------------------|--------------------------------------------|

D#|--------------------|----------------------------|----------------------------|-----------0-----0----0----1----2----|
A#|--------------------|----------------------------|----------------------------|-----------0-----0----0----1----2----|
F#|--------------------|----------------------------|----------------------------|-------------------------------------|
C#|-4------4----2------|-2------2-------------------|----------------------------|-------------------------------------|
G#|--------------------|----------------------------|----------------------------|-------------------------------------|
D#|--------------------|-------------0----1----2----|-2------X----2----1----0----|-0----X------------------------------|

D#|-2-----2-----0----2----1----0----|-0-------|---------|-------------------|--------------------------------------------|
A#|-2-----2-----0----2----1----0----|-0-------|-7-------|-10------14---8----|-8----8----7---------7----X---X---7----5----|
F#|---------------------------------|---------|-7-------|-10------14---9----|-9----9----7---------7----X---X---7----5----|
C#|---------------------------------|---------|-7-------|-10------14---7----|-7----7----7---------7----X---X---7----5----|
G#|---------------------------------|---------|---------|-------------------|----------------0---------------------------|
D#|---------------------------------|---------|---------|-------------------|--------------------------------------------|

D#|-------------------|----------------------------------------------|----------------------3----|
A#|-5-----------------|----------------------------------------------|----------------------3----|
F#|-5------------5----|-5-----4----X---X---4---X---X---X--------10---|-10-----10----X---X---0----|
C#|-5------------7----|-7-----5----X---X---5---X---X---X--------10---|-10-----10----X---X---0----|
G#|-------------------|------------------------------------8----8----|-8------8------------------|
D#|---------0---------|----------------------------------------------|----------------------3----|

D#|-3--------------------------------------|-----------------------------|---------------|
A#|-3-----5------------5-------------------|-----------------------------|---------------|
F#|-0-----5------------5---------4----5----|-5-----4-----2-----0----2----|-2-------2-----|
C#|-0-----5------------5---------5----5----|-5-----5-----2-----0---------|---------------|
G#|------------X---X-----------------------|-----------------------------|---------------|
D#|-3----------X---X--------3--------------|-----------------------------|---------------|

D#|---------------|-----------------------------------------|-----------------------------------------|
A#|---------------|-----------------------------------------|-----------------------------------------|
F#|-2-------%-----|-2----------------------------------2----|-2---------------------------------------|
C#|---------%-----|-2----------------------------------2----|-2---------------------------------------|
G#|---------------|-0----0----3----0----3----0---------0----|-0----0----3----0----3----0--------------|
D#|---------------|-------------------------------3---------|-------------------------------3----1----|

D#|-----------------------------------------|-----------------------------------------|
A#|-----------------------------------------|-----------------------------------------|
F#|-----------------------------------------|-----------------------------------------|
C#|-----------------------------------------|-----------------------------------------|
G#|-----------3----2----3----2----0---------|-----------3----2----3----2----0---------|
D#|-1----1-----------------------------1----|-1----1-----------------------------3----|

D#|-----------------------------------------|-----------------------------------------|
A#|-----------------------------------------|-----------------------------------------|
F#|-----------------------------------------|------------------------------------2----|
C#|-----------------------------------------|------------------------------------2----|
G#|-----------3----2----3----2----0---------|-----------3----2----3----2---------0----|
D#|-3----3-----------------------------3----|-3----3------------------------3---------|

D#|---------------------------------|-------------------------------------|---------------------------------|
A#|---------------------------------|-------------------------------------|---------------------------------|
F#|---------------------------------|--------------------------------2----|-2-----2----2----2----2----2-----|
C#|---------------------------------|-------------------------------------|---------------------------------|
G#|-----------------------3----5----|-5-----3---5----5----3-----0---------|---------------------------------|
D#|-3------5----5----5--------------|-------------------------------------|---------------------------------|

D#|-------------------|-----------------------------|---------------------------------|
A#|-------------------|-----------------------------|---------------------------------|
F#|-2-------2----2----|-2-----2-----2----2----2-----|-2-----2-----2----5----5----4----|
C#|-------------------|-----------------------------|---------------------------------|
G#|-------------------|-----------------------------|---------------------------------|
D#|-------------------|-----------------------------|---------------------------------|

D#|-------------------------------------|---------------------------------|------------------------------------------|
A#|-------------------------------------|---------------------------------|------------------------------------------|
F#|-4-----4----4----4----4----4----7----|-7-----7-----7----5----5----9----|-9------9----9----9-------9---11--9-------|
C#|-------------------------------------|---------------------------------|----------------------12--------------12--|
G#|-------------------------------------|---------------------------------|------------------------------------------|
D#|-------------------------------------|---------------------------------|------------------------------------------|

D#|---------------------------------------|-----------------------------|--------------------|
A#|---------------------------------------|------------------------8----|-8------8-----------|
F#|-9---------------------------%----7----|-7-----7----7------5---------|---------------7----|
C#|-----12--10------------------%---------|-----------------------------|--------------------|
G#|-------------12--12----12--------------|-----------------------------|--------------------|
D#|---------------------------------------|-----------------------------|--------------------|

D#|-----------------------------|------8--------------------8---------|-----------------------------|
A#|------------------------8----|-8---------8----8----8---------------|------------------------5----|
F#|-7-----7-----7-----5---------|--------------------------------7----|-7-----7-----7-----5---------|
C#|-----------------------------|-------------------------------------|-----------------------------|
G#|-----------------------------|-------------------------------------|-----------------------------|
D#|-----------------------------|-------------------------------------|-----------------------------|

D#|------5-------------------------------------|-----------------------------------------|
A#|-5---------8----5---------------------------|-----------------------------------------|
F#|---------------------7----7---5-------------|-----------------------------------------|
C#|----------------------------------7----7----|-7----5----------------------------------|
G#|--------------------------------------------|-----------7----6----5----3----5----3----|
D#|--------------------------------------------|-----------------------------------------|

D#|----------------------------------------|-------------------------------------|-------------5---8-------------|
A#|----------------------------------------|--------------------------------8----|-8------8------------8----8----|
F#|------------------------------%----7----|-7----7----7-----7----7----5---------|-------------------------------|
C#|------------------------------%---------|-------------------------------------|-------------------------------|
G#|-5----5---3--------5----5---------------|-------------------------------------|-------------------------------|
D#|--------------5-------------------------|-------------------------------------|-------------------------------|

D#|-----------------8-------------------|------------X----8-----10----|-----------------------------|
A#|-8-----8---8---------8-----5----10---|-10----10--------------------|-10----10----10----8----13---|
F#|-------------------------------------|-----------------------------|-----------------------------|
C#|-------------------------------------|-----------------------------|-----------------------------|
G#|-------------------------------------|-----------------------------|-----------------------------|
D#|-------------------------------------|-----------------------------|-----------------------------|

D#|--------------------------------------------|---------------------------------------------------------------|
A#|-13----13--13----13---12---13---12--13--12--|-10------12------10--12--10------10-------10-------------------|
F#|--------------------------------------------|-----12------12--------------12------12-------12--9------------|
C#|--------------------------------------------|------------------------------------------------------12---10--|
G#|--------------------------------------------|---------------------------------------------------------------|
D#|--------------------------------------------|---------------------------------------------------------------|

D#|-------------------------------------------------|---------------------------------|
A#|-------------------------------------------------|---------------------------------|
F#|-------------------------------------------------|---------------------------------|
C#|-----12------10----------------------------------|---------------------------------|
G#|-12------12------12--10------10------------------|---------------------------------|
D#|-------------------------12------10---8-----10---|-10---8----3-----3---5------5----|

D#|--------------------------------------------|------------------------------------------------|
A#|--------------------------------------------|------------------------------------------------|
F#|----------------------------------%---------|---------------------------------7---------9----|
C#|----------------------------------%---------|-------7----10---9---10--9---7--------10--------|
G#|-5----5---3---5----5----3----5---------8----|-8----------------------------------------------|
D#|--------------------------------------------|------------------------------------------------|

D#|--------------------------------------------------------------|---------------------------10--------12--------10---12---13---|
A#|---------------------------------------------------------10---|-12--10------10--12---13--------13--------13------------------|
F#|------7----9----10---12---9----10--9-------9---10---12--------|---------12---------------------------------------------------|
C#|-10------------------------------------12---------------------|--------------------------------------------------------------|
G#|--------------------------------------------------------------|--------------------------------------------------------------|
D#|--------------------------------------------------------------|--------------------------------------------------------------|

D#|-12--13--12--10------10---13----13--13---13---|-12---13---12--13--12--10--12----10---13---|
A#|-----------------13---------------------------|-------------------------------------------|
F#|----------------------------------------------|-------------------------------------------|
C#|----------------------------------------------|-------------------------------------------|
G#|----------------------------------------------|-------------------------------------------|
D#|----------------------------------------------|-------------------------------------------|

D#|-12--13--12--10--12--10--8-------10------7---8---10--8---7---8--------|---------------------------------|
A#|-----------------------------10------10--------------------------12---|-12---12---12----12----10---10---|
F#|----------------------------------------------------------------------|---------------------------------|
C#|----------------------------------------------------------------------|---------------------------------|
G#|----------------------------------------------------------------------|---------------------------------|
D#|----------------------------------------------------------------------|---------------------------------|

D#|-----------------------10---------------|--------12----15----15----|-------------------------------15---|
A#|-10----10---13---13--------13--10--13---|-13-----------------------|-15---15--13--15---12-----10--------|
F#|----------------------------------------|--------------------------|------------------------------------|
C#|----------------------------------------|--------------------------|------------------------------------|
G#|----------------------------------------|--------------------------|------------------------------------|
D#|----------------------------------------|--------------------------|------------------------------------|

D#|-15-----12---12----------------|------12--15--13--15--13--12------13------12--13--12------12----------12--|
A#|-------------------16----15----|-15---------------------------15------15--------------15------13--15------|
F#|-------------------------------|--------------------------------------------------------------------------|
C#|-------------------------------|--------------------------------------------------------------------------|
G#|-------------------------------|--------------------------------------------------------------------------|
D#|-------------------------------|--------------------------------------------------------------------------|

D#|-----------------------------------------------------------------|-------15---------------|
A#|-15--13--15--13--12------13------12--13--12------12--13--15--15--|-15---------15---15-----|
F#|---------------------14------14--------------14------------------|------------------------|
C#|-----------------------------------------------------------------|------------------------|
G#|-----------------------------------------------------------------|------------------------|
D#|-----------------------------------------------------------------|------------------------|

D#|---------|---------|---------|--------------------|
A#|---------|---------|---------|-13-----------------|
F#|-%-------|-%-------|-%-------|-12----%-----%------|
C#|-%-------|-%-------|-%-------|-11----%-----%------|
G#|---------|---------|---------|-12-----------------|
D#|---------|---------|---------|--------------------|
Guns N' Roses - Nightrain
Guns N' Roses - Nightrain.gp3