Guns N' Roses - Nightrain (Almost Live)

Guns N Roses



Title: Nightrain (Almost Live) 
Album: Appetite For Destruction
Artist: Guns N' Roses
Author: W. Axl Rose, Slash, Izzy Stradlin', Duff "Rose" McKagan, Steven Adler

Track 1: Lead & Rhythm Guitar - Slash
D#|-------------|-----------------|---------|-------------------|-----------------------------|
A#|-------------|-----------------|---------|--------------8----|-8----8----7-----7-----5-----|
F#|-------------|-----------------|---------|--------------9----|-9----9----7-----7-----5-----|
C#|-------------|------------X----|-7-------|-7------------7----|-7----7----7-----7-----5-----|
G#|-X-----X-----|-X-----X----X----|-7-------|-7-------0---------|-----------------------------|
D#|-X-----X-----|-X-----X----X----|-5-------|-5-----------------|-----------------------------|

D#|-------------------|----------------------------1----|-1------------3----|-3---------------------------|
A#|-5-------5----5----|-5----5----3-----3----------1----|-1------------3----|-3----3----3-----3-----3-----|
F#|-5-------5----5----|-5----5----4-----4----------2----|-2------------0----|-0----0----4-----5-----4-----|
C#|-5-------5----5----|-5----5----5-----5-----3----3----|-3-------3----5----|-5----5----5-----5-----5-----|
G#|-------------------|---------------------------------|-------------------|-----------------------------|
D#|-------------------|---------------------------------|-------------------|-----------------------------|

D#|-----------------------------|---------|----------------------------|-----------------------------|
A#|-3-----3---------------------|---------|-----------------------8----|-8----8----7-----7-----5-----|
F#|-5-----4-----2-----0----2----|-2-------|-2------2----2----X----9----|-9----9----7-----7-----5-----|
C#|-5-----5-----2-----0----2----|-2-------|-2------2----2----X----7----|-7----7----7-----7-----5-----|
G#|------------------------0----|-0-------|-0------0----0----X---------|-----------------------------|
D#|-----------------------------|---------|----------------------------|-----------------------------|

D#|-------------------|----------------------------1----|-1------------3----|-3---------------------------|
A#|-5-------5----5----|-5----5----3-----3----------1----|-1------------3----|-3----3----3-----3-----3-----|
F#|-5-------5----5----|-5----5----4-----4----------2----|-2------------0----|-0----0----4-----5-----4-----|
C#|-5-------5----5----|-5----5----5-----5-----3----3----|-3-------3----5----|-5----5----5-----5-----5-----|
G#|-------------------|---------------------------------|-------------------|-----------------------------|
D#|-------------------|---------------------------------|-------------------|-----------------------------|

D#|-----------------------------|---------|----------------------------|---------------------------------|
A#|-3-----3---------------------|---------|----------------------------|---------------------------------|
F#|-5-----4-----2-----0----2----|-2-------|-2------2----2---------2----|-2-----2-----2--------------2----|
C#|-5-----5-----2-----0----2----|-2-------|-2------2----2---------2----|-2-----2-----2--------------2----|
G#|------------------------0----|-0-------|-0------0----0---------0----|-0-----0-----0--------------0----|
D#|-----------------------------|---------|------------------3---------|------------------0----3---------|

D#|---------------------------------|-----------------------------------------|---------------------------------|
A#|---------------------------------|-----------------------------------------|---------------------------------|
F#|-2-----2-----2-------------------|--------------------------2---------2----|-2-----2-----2--------------2----|
C#|-2-----2-----2-------------------|--------------------------2---------2----|-2-----2-----2--------------2----|
G#|-0-----0-----0--------------3----|-3----3----0--------------0---------0----|-0-----0-----0--------------0----|
D#|------------------0----3---------|----------------0----3---------3---------|------------------0----3---------|

D#|---------------------------------|---------------------------------|-----------------------------------------|
A#|---------------------------------|---------------------------------|-----------------------------------------|
F#|-2-----2-----2--------------2----|-2-----2-----2-------------------|-----------2--------------2---------2----|
C#|-2-----2-----2--------------2----|-2-----2-----2-------------------|-----------2--------------2---------2----|
G#|-0-----0-----0--------------0----|-0-----0-----0--------------3----|-3----3----0--------------0---------0----|
D#|------------------0----3---------|------------------0----3---------|----------------0----3---------3---------|

D#|----------------------------|---------------------------------|---------------------------------|
A#|----------------------------|---------------------------------|---------------------------------|
F#|-2------7----7----5----2----|-2-----2-----2--------------2----|-2-----2-----2-------------------|
C#|-2---------------------2----|-2-----2-----2--------------2----|-2-----2-----2-------------------|
G#|-0---------------------0----|-0-----0-----0--------------0----|-0-----0-----0--------------3----|
D#|----------------------------|------------------0----3---------|------------------0----3---------|

D#|-----------------------------------------|---------------------------------|---------------------------------|
A#|-----------------------------------------|---------------------------------|---------------------------------|
F#|--------------------------2---------2----|-2-----2-----2--------------2----|-2-----2-----2--------------2----|
C#|--------------------------2---------2----|-2-----2-----2--------------2----|-2-----2-----2--------------2----|
G#|-3----3----0--------------0---------0----|-0-----0-----0--------------0----|-0-----0-----0--------------0----|
D#|----------------0----3---------3---------|------------------0----3---------|------------------0----3---------|

D#|--------------------------------2----|-2-------|-2-------2---------|-------------------------------------|
A#|--------------------------------3----|-3-------|-3-------3----8----|-8-----7----5----7----5----5----3----|
F#|-2---------2-----2--------------2----|-2-------|-2-------2----9----|-9-----7----5----7----5----5----4----|
C#|-2---------2-----2--------------0----|-0-------|-0-------0----7----|-7-----------------------------------|
G#|-0----0----0-----0-------------------|---------|-------------------|-------------------------------------|
D#|----------------------3----0---------|---------|-------------------|-------------------------------------|

D#|----------------------------5----|-5-----17----17---5------|-5------5----5-----------|
A#|-1-----0-------------------------|-------------------------|-------------------------|
F#|-2-----0-----2----0---------2----|-2-----2-----2----2------|-2------2----2------2----|
C#|-----------------------2---------|-------------------------|--------------------2----|
G#|---------------------------------|-------------------------|--------------------0----|
D#|---------------------------------|-------------------------|-------------------------|

D#|---------------------------------|---------------------------------|-----------------------------------------|
A#|---------------------------------|---------------------------------|-----------------------------------------|
F#|-2-----2-----2--------------2----|-2-----2-----2-------------------|--------------------------2---------2----|
C#|-2-----2-----2--------------2----|-2-----2-----2-------------------|--------------------------2---------2----|
G#|-0-----0-----0--------------0----|-0-----0-----0--------------3----|-3----3----0--------------0---------0----|
D#|------------------0----3---------|------------------0----3---------|----------------0----3---------3---------|

D#|---------------------------------|---------------------------------|--------------------------------2----|
A#|---------------------------------|---------------------------------|--------------------------------3----|
F#|-2-----2-----2--------------2----|-2-----2-----2--------------2----|-2---------2-----2--------------2----|
C#|-2-----2-----2--------------2----|-2-----2-----2--------------2----|-2---------2-----2--------------0----|
G#|-0-----0-----0--------------0----|-0-----0-----0--------------0----|-0----0----0-----0-------------------|
D#|------------------0----3---------|------------------0----3---------|----------------------3----0---------|

D#|-2-------|-2-------2---------|-----------------------------|-------------------|
A#|-3-------|-3-------3----8----|-8----8----7-----7-----5-----|-5-------5----5----|
F#|-2-------|-2-------2----9----|-9----9----7-----7-----5-----|-5-------5----5----|
C#|-0-------|-0-------0----7----|-7----7----7-----7-----5-----|-5-------5----5----|
G#|---------|-------------------|-----------------------------|-------------------|
D#|---------|-------------------|-----------------------------|-------------------|

D#|----------------------------1----|-1------------3----|-3---------------------------|
A#|-5----5----3-----3----------1----|-1------------3----|-3----3----3-----3-----3-----|
F#|-5----5----4-----4----------2----|-2------------0----|-0----0----4-----5-----4-----|
C#|-5----5----5-----5-----3---------|---------3----5----|-5----5----5-----5-----5-----|
G#|---------------------------------|-------------------|-----------------------------|
D#|---------------------------------|-------------------|-----------------------------|

D#|-----------------------------|-----------------------------------------|-----------------------------------------|
A#|-3-----3---------------------|-----------------------------------------|-----------------------------------------|
F#|-5-----4-----2-----0---------|-----------------------------------------|------------------------------------2----|
C#|-5-----5-----2-----0----5----|-5----5----5----5----5----5----5----5----|-5----5----5----5----5----2----5----2----|
G#|------------------------5----|-5----5----5----5----5----5----5----5----|-5----5----5----5----5----2----5----0----|
D#|------------------------3----|-3----3----3----3----3----3----3----3----|-3----3----3----3----3----0----3---------|

D#|-----------------------------------------|-----------------------------------------|
A#|-----------------------------------------|-----------------------------------------|
F#|-2----------------------------------2----|-2----------------------------------2----|
C#|-2--------------2---------2---------2----|-2----2---------2---------2---------2----|
G#|-0----0----3----0----3----0---------0----|-0----0----3----0----3----0---------0----|
D#|-------------------------------3---------|-------------------------------3---------|

D#|-----------------------------------------|-----------------------------------------|
A#|-----------------------------------------|-----------------------------------------|
F#|-2----------------------------------2----|-2----------------------------------2----|
C#|-2----2---------2---------2---------2----|-2----2---------2---------2---------2----|
G#|-0----0----3----0----3----0---------0----|-0----0----3----0----3----0---------0----|
D#|-------------------------------3---------|-------------------------------3---------|

D#|-----------------------------------------|-----------------------------------------|
A#|-----------------------------------------|-----------------------------------------|
F#|-2----------------------------------2----|-2---------------------------------------|
C#|-2----2---------2---------2---------2----|-2----2---------2---------2----5----3----|
G#|-0----0----3----0----3----0---------0----|-0----0----3----0----3----0----5----3----|
D#|-------------------------------3---------|-------------------------------3----1----|

D#|-------------------|-------------------|-----------------------------------------|
A#|-------------------|-------------------|-----------------------------------------|
F#|-------------------|--------------2----|-2----------------------------------2----|
C#|-3-------3----5----|-5------------2----|-2----2---------2---------2---------2----|
G#|-3-------3----5----|-5------------0----|-0----0----3----0----3----0---------0----|
D#|-1-------1----3----|-3-------3---------|-------------------------------3---------|

D#|-----------------------------------------|-----------------------------------------|
A#|-----------------------------------------|-----------------------------------------|
F#|-2----------------------------------2----|-2----------------------------------2----|
C#|-2----2---------2---------2---------2----|-2----2---------2---------2---------2----|
G#|-0----0----3----0----3----0---------0----|-0----0----3----0----3----0---------0----|
D#|-------------------------------3---------|-------------------------------3---------|

D#|-----------------------------------------|-----------------------------------------|
A#|-----------------------------------------|-----------------------------------------|
F#|-2----------------------------------2----|-2----------------------------------2----|
C#|-2----2---------2---------2---------2----|-2----2---------2---------2---------2----|
G#|-0----0----3----0----3----0---------0----|-0----0----3----0----3----0---------0----|
D#|-------------------------------3---------|-------------------------------3---------|

D#|-----------------------------------------|---------|-------------------|-----------------------------------------|
A#|------------------------------------3----|-3-------|-3-------3---------|-----------------------------------------|
F#|-2----------------------------------2----|-2-------|-2-------2----4----|-4----2----4----X----2----4----X----4----|
C#|-2----2---------2---------2---------0----|-0-------|-0-------0----4----|-4----2----4----X----2----4----X----4----|
G#|-0----0----3----0----3----0--------------|---------|--------------2----|-2----0----2----X----0----2----X----2----|
D#|-------------------------------3---------|---------|-------------------|-----------------------------------------|

D#|-----------------------------------------|-----------------------------------------|
A#|-----------------------------------------|-----------------------------------------|
F#|-4----2----4----X----4-------------------|-----------------------------------------|
C#|-4----2----4----X----4----2----3----4----|-4----2----4----X----2----4----X----4----|
G#|-2----0----2----X----2----2----3----4----|-4----2----4----X----2----4----X----4----|
D#|--------------------------0----1----2----|-2----0----2----X----0----2----X----2----|

D#|-----------------------------------------|-----------------------------------------|
A#|-----------------------------------------|-----------------------------------------|
F#|----------------%---------%----%----4----|-4----2----4----X----2----4----X----4----|
C#|-4----2----4----%----4----%----%----4----|-4----2----4----X----2----4----X----4----|
G#|-4----2----4---------4--------------2----|-2----0----2----X----0----2----X----2----|
D#|-2----0----2---------2-------------------|-----------------------------------------|

D#|-----------------------------------------|-----------------------------------------|
A#|-----------------------------------------|-----------------------------------------|
F#|-4----2----4----X----4-------------------|-----------------------------------------|
C#|-4----2----4----X----4----2----3----4----|-4----2----4----X----2----4----X----4----|
G#|-2----0----2----X----2----2----3----4----|-4----2----4----X----2----4----X----4----|
D#|--------------------------0----1----2----|-2----0----2----X----0----2----X----2----|

D#|-----------------------------------------|-10----10---------------10---|-10----10--------------------|
A#|-----------------------------------------|-10----10----10----10---10---|-10----10----10----10--------|
F#|-%---------%---------%---------%---------|-9-----9-----9-----7----9----|-9-----9-----9-----7----11---|
C#|-%----4----%----5----%----6----%----7----|-----------------------------|-----------------------------|
G#|------4---------5---------6---------7----|-----------------------------|-----------------------------|
D#|------2---------3---------4---------5----|-----------------------------|-----------------------------|

D#|-----------9----12---12---12-------------|---------------------------------------10---|
A#|------10-------------12---12---10---12---|-12---12--10---------------------------10---|
F#|-11--------------------------------------|--------------11---11---11---11-------------|
C#|-----------------------------------------|----------------------------------12--------|
G#|-----------------------------------------|--------------------------------------------|
D#|-----------------------------------------|--------------------------------------------|

D#|-10---10------------------10----13---|-14---10---------------------------------------|
A#|-10---10------------------10----12---|-13---10----------------------------------17---|
F#|-----------12---10---11--------------|-----------12---12--10--12---10--11--0---------|
C#|-------------------------------------|-----------------------------------------------|
G#|-------------------------------------|-----------------------------------------------|
D#|-------------------------------------|-----------------------------------------------|

D#|-----14-------------------------------------------------------|-----------------------------------|
A#|-17------17--14-----------------------------------------------|-----------------------------------|
F#|-----------------16--16--14------16--14-----------------------|-----------------------------------|
C#|-----------------------------16----------16--14---------------|-----------------------------------|
G#|-------------------------------------------------16--14--13---|-13-------------13------12----12---|
D#|--------------------------------------------------------------|--------14--14------14-------------|

D#|---------------------------------|---------------------------------|-----------------------------|
A#|-7-----7----6----7-----7----6----|-7-----7---------7----9-----10---|-10----9-----9----7-----5----|
F#|---------------------------------|---------------------------------|-----------------------------|
C#|-7-----7----6----7-----7----6----|-7-----7----0----7----9-----11---|-11----9-----9----7-----6----|
G#|---------------------------------|---------------------------------|-----------------------------|
D#|---------------------------------|---------------------------------|-----------------------------|

D#|-----------------------------|-----------4----5--------------------|-----------------------------------------------|
A#|-5----5----4-----2-----------|---------------------5-----2----5----|------------------------------------------14---|
F#|------------------------4----|-4----4------------------------------|-4----4---2---4----2----4----4---2-------------|
C#|-6----6----4-----2-----------|-------------------------------------|-------------------------------------4----4----|
G#|-----------------------------|-------------------------------------|-----------------------------------------------|
D#|-----------------------------|-------------------------------------|-----------------------------------------------|

D#|------------------------|----------------------------|----------------------------|
A#|-14-----14--------------|----------------------------|----------------------------|
F#|------------------------|----------------------------|----------------------------|
C#|-4------4----2-----2----|-2------2-------------------|----------------------------|
G#|------------------------|----------------------------|----------------------------|
D#|------------------------|-------------0----1----2----|-2------X----2----1----0----|

D#|-----------0-----0----0----1----2----|-2-----2-----0----2----1----0----|-0-------|
A#|-----------0-----0----0----1----2----|-2-----2-----0----2----1----0----|-0-------|
F#|-------------------------------------|---------------------------------|---------|
C#|-------------------------------------|---------------------------------|---------|
G#|-------------------------------------|---------------------------------|---------|
D#|-0----X------------------------------|---------------------------------|---------|

D#|---------|-------------------|--------------------------------------------|-------------------|
A#|-7-------|-10------14---8----|-8----8----7---------7----X---X---7----5----|-5-----------------|
F#|-7-------|-10------14---9----|-9----9----7---------7----X---X---7----5----|-5------------5----|
C#|-7-------|-10------14---7----|-7----7----7---------7----X---X---7----5----|-5------------7----|
G#|---------|-------------------|----------------0---------------------------|-------------------|
D#|---------|-------------------|--------------------------------------------|---------0---------|

D#|----------------------------------------------|--------------------------3----|-3--------------------------------------|
A#|----------------------------------------------|--------------------------3----|-3-----5------------5-------------------|
F#|-5-----4----X---X---4---X---X---X--------10---|-10-----10---10---X---X---0----|-0-----5------------5---------4----5----|
C#|-7-----5----X---X---5---X---X---X--------10---|-10-----10---10---X---X---0----|-0-----5------------5---------5----5----|
G#|------------------------------------8----8----|-8------8----8-----------------|------------X---X-----------------------|
D#|----------------------------------------------|--------------------------3----|-3----------X---X--------3--------------|

D#|------------------------5----|-5-------5----5----|-5-------5---------|---------|
A#|-----------------------------|-------------------|-------------------|---------|
F#|-5-----4-----2-----0----2----|-2-------2----2----|-2-------2----%----|-%-------|
C#|-5-----5-----2-----0---------|-------------------|--------------%----|-%-------|
G#|-----------------------------|-------------------|-------------------|---------|
D#|-----------------------------|-------------------|-------------------|---------|

D#|---------|---------|---------|---------|------------------------|---------------------------------|
A#|---------|---------|---------|---------|------------------------|---------------------------------|
F#|-%-------|-%-------|-%-------|-%-------|-%------%-----%---------|---------------------------------|
C#|-%-------|-%-------|-%-------|-%-------|-%------%-----%---------|---------------------------------|
G#|---------|---------|---------|---------|------------------------|-----------------------3----5----|
D#|---------|---------|---------|---------|-------------------3----|-3------5----5----5--------------|

D#|----------------------------------------|-------------------------------------|-------------------|
A#|----------------------------------------|-------------------------------------|-------------------|
F#|-----------------------------------2----|-2-----2----2----2----2----2----2----|-2-------2----2----|
C#|----------------------------------------|-------------------------------------|-------------------|
G#|-5----5---3---5----5----3-----0---------|-------------------------------------|-------------------|
D#|----------------------------------------|-------------------------------------|-------------------|

D#|-------17------------------------|---------------------------------|-------------------------------------|
A#|---------------------------------|---------------------------------|-------------------------------------|
F#|-2-----2-----2----2----2----2----|-2-----2-----2----5----5----4----|-4-----4----4----4----4----4----7----|
C#|---------------------------------|---------------------------------|-------------------------------------|
G#|---------------------------------|---------------------------------|-------------------------------------|
D#|---------------------------------|---------------------------------|-------------------------------------|

D#|---------------------------------|------------------------------------------|---------------------------------------|
A#|---------------------------------|------------------------------------------|---------------------------------------|
F#|-7-----7-----7----5----5----9----|-9------9----9----9-------9---10--9-------|-9---------------------------%----7----|
C#|---------------------------------|----------------------12--------------12--|-----12--10------------------%---------|
G#|---------------------------------|------------------------------------------|-------------12--12----12--------------|
D#|---------------------------------|------------------------------------------|---------------------------------------|

D#|---------------------------------|-------------------|-----------------------------|
A#|----------------------------8----|-8-------8---------|------------------------8----|
F#|-7-----7----7----7-----5---------|--------------7----|-7-----7-----7-----5---------|
C#|---------------------------------|-------------------|-----------------------------|
G#|---------------------------------|-------------------|-----------------------------|
D#|---------------------------------|-------------------|-----------------------------|

D#|------8--------------------8---------|------------------------17---|-17---5--------------------------------21---|
A#|-8----8----8----8----8---------------|------------------------5----|-5---------8----5---------------------------|
F#|--------------------------------7----|-7-----7-----7-----5---------|---------------------7----7---5-------------|
C#|-------------------------------------|-----------------------------|----------------------------------7----7----|
G#|-------------------------------------|-----------------------------|--------------------------------------------|
D#|-------------------------------------|-----------------------------|--------------------------------------------|

D#|-21--------------------------------------|----------------------------------------|
A#|-----------------------------------------|----------------------------------------|
F#|-----------------------------------------|------------------------------%----7----|
C#|-7----5----------------------------------|------------------------------%---------|
G#|-----------7----6----5----3----5----3----|-5----5---3--------5----5---------------|
D#|-----------------------------------------|--------------5-------------------------|

D#|-----------10----10---10-------------|-------------5---8-------------|-----------------8-----------------------|
A#|--------------------------------8----|-8------8------------8----8----|-8-----8---8---------8----8----5----10---|
F#|-7----7----7-----7----7----5---------|-------------------------------|-----------------------------------------|
C#|-------------------------------------|-------------------------------|-----------------------------------------|
G#|-------------------------------------|-------------------------------|-----------------------------------------|
D#|-------------------------------------|-------------------------------|-----------------------------------------|

D#|--------------8-----10----|-----------------------------|--------------------------------------------|
A#|-10-----10----------------|-10----10----10----8----13---|-13----13--13----13---12---13---12--13--12--|
F#|--------------------------|-----------------------------|--------------------------------------------|
C#|--------------------------|-----------------------------|--------------------------------------------|
G#|--------------------------|-----------------------------|--------------------------------------------|
D#|--------------------------|-----------------------------|--------------------------------------------|

D#|------------------------------------------------------------------|----------------------------------------------------|
A#|-10------12------10--12--10------10-------10----------------------|----------------------------------------------------|
F#|-----12------12--------------12------12-------12--9---------------|----------------------------------------------------|
C#|------------------------------------------------------12--12--10--|-----12------10-------------------------------------|
G#|------------------------------------------------------------------|-12------12------12--10------10---------------------|
D#|------------------------------------------------------------------|-------------------------12------10---8-----10--10--|

D#|-----------------------------|-----------------------------------------|------------------------------------------------|
A#|-----------------------------|-----------------------------------------|------------------------------------------------|
F#|-----------------------------|-------------------------------%---------|---------------------------------7---------9----|
C#|-----------------------------|-------------------------------%---------|-------7----10---9---10--9---7--------10--------|
G#|-----------------------------|-5-----3---5----5----3----5---------8----|-8----------------------------------------------|
D#|-10---8----3-----5------5----|-----------------------------------------|------------------------------------------------|

D#|----------------------------------------------------------------|---------------------------10--------12--------10---12---13---|
A#|-----------------------------------------------------------10---|-12--10------10--12---13--------13--------13------------------|
F#|------7----9----10---12---9----10--9--------9----10---12--------|---------12---------------------------------------------------|
C#|-10------------------------------------12-----------------------|--------------------------------------------------------------|
G#|----------------------------------------------------------------|--------------------------------------------------------------|
D#|----------------------------------------------------------------|--------------------------------------------------------------|

D#|-12--13--12--10------10---13-----13---|-12---13---12--13--12--10--12----10---13---|
A#|-----------------13-------------------|-------------------------------------------|
F#|--------------------------------------|-------------------------------------------|
C#|--------------------------------------|-------------------------------------------|
G#|--------------------------------------|-------------------------------------------|
D#|--------------------------------------|-------------------------------------------|

D#|-12--13--12--10--12--10--8-------10------7---8---10--8---7---8--------|-----------------------------|
A#|-----------------------------10------10--------------------------12---|-12----12----12----10---10---|
F#|----------------------------------------------------------------------|-----------------------------|
C#|----------------------------------------------------------------------|-----------------------------|
G#|----------------------------------------------------------------------|-----------------------------|
D#|----------------------------------------------------------------------|-----------------------------|

D#|-------------------10---------------|--------12----15----15----|----------------------------15---|
A#|-10----10---13---------13--10--13---|-13-----------------------|-15----13--15---12-----10--------|
F#|------------------------------------|--------------------------|---------------------------------|
C#|------------------------------------|--------------------------|---------------------------------|
G#|------------------------------------|--------------------------|---------------------------------|
D#|------------------------------------|--------------------------|---------------------------------|

D#|-15-----12---12----------------|------12--15--13--15--13--12------13------12--13--12------12----------12--|
A#|-------------------16----15----|-15---------------------------15------15--------------15------13--15------|
F#|-------------------------------|--------------------------------------------------------------------------|
C#|-------------------------------|--------------------------------------------------------------------------|
G#|-------------------------------|--------------------------------------------------------------------------|
D#|-------------------------------|--------------------------------------------------------------------------|

D#|-----------------------------------------------------------------|-------15---------------15---|
A#|-15--13--15--13--12------13------12--13--12------12--13--15--15--|-15---------15---15----------|
F#|---------------------14------14--------------14------------------|-----------------------------|
C#|-----------------------------------------------------------------|-----------------------------|
G#|-----------------------------------------------------------------|-----------------------------|
D#|-----------------------------------------------------------------|-----------------------------|

D#|-15-----15---15---12---19---|-19-----17---19---20---20---|-20-----17---20---19---20--19--17------|
A#|----------------------------|----------------------------|-----------------------------------20--|
F#|----------------------------|----------------------------|---------------------------------------|
C#|----------------------------|----------------------------|---------------------------------------|
G#|----------------------------|----------------------------|---------------------------------------|
D#|----------------------------|----------------------------|---------------------------------------|

D#|-------------------------------------------------------------------------|-------------------------------------------------------------------|
A#|-18--17------17--20--18--17--18--17--------------------------------------|-17--18--17------17--18---20---17---18---17--------17--------------|
F#|---------19--------------------------19--17--16--17--16------16--17--19--|-------------19-------------------------------19-------19--17--16--|
C#|---------------------------------------------------------19--------------|-------------------------------------------------------------------|
G#|-------------------------------------------------------------------------|-------------------------------------------------------------------|
D#|-------------------------------------------------------------------------|-------------------------------------------------------------------|

D#|-----------------------------------------------|---------------|--------------------|
A#|-----------------------------------------------|-------20------|-20-----20-----8----|
F#|-17---16--------16---17---19---19----17---19---|-19----19------|-19-----19-----9----|
C#|-----------19----------------------------------|---------------|---------------7----|
G#|-----------------------------------------------|---------------|--------------------|
D#|-----------------------------------------------|---------------|--------------------|

D#|-----------------------------|-------------------|----------------------------1----|
A#|-8----8----7-----7-----5-----|-5-------5----5----|-5----5----3-----3----------1----|
F#|-9----9----7-----7-----5-----|-5-------5----5----|-5----5----4-----4----------2----|
C#|-7----7----7-----7-----5-----|-5-------5----5----|-5----5----5-----5-----3----3----|
G#|-----------------------------|-------------------|---------------------------------|
D#|-----------------------------|-------------------|---------------------------------|

D#|-1------------3----|-3---------------------------|--------------------------------|
A#|-1------------3----|-3----3----3-----3-----3-----|-3-----3------------------------|
F#|-2------------0----|-0----0----4-----5-----4-----|-5-----4-----2-----0----2---2---|
C#|-3-------3----5----|-5----5----5-----5-----5-----|-5-----5-----2-----0----X---X---|
G#|-------------------|-----------------------------|------------------------0---0---|
D#|-------------------|-----------------------------|--------------------------------|

D#|--------------------------------------------------|-------------------------------------|
A#|--------------------------------------------------|---------------------------X----8----|
F#|-2---2---2----2----2----5---5---5----5---5---5----|-9----9----9----14---14----X----9----|
C#|-X---X---X----X----X----X---X---X----X---X---X----|-X----X----X----X----------X----7----|
G#|-0---0---0----0----0----3---3---3----3---3---3----|-7----7----7----12---12----X---------|
D#|--------------------------------------------------|-------------------------------------|

D#|-----------------------------|-------------------|----------------------------1----|
A#|-8----8----7-----7-----5-----|-5-------5----5----|-5----5----3-----3----------1----|
F#|-9----9----7-----7-----5-----|-5-------5----5----|-5----5----4-----4----------2----|
C#|-7----7----7-----7-----5-----|-5-------5----5----|-5----5----5-----5-----3----3----|
G#|-----------------------------|-------------------|---------------------------------|
D#|-----------------------------|-------------------|---------------------------------|

D#|-1------------3----|-3---------------------------|-----------------------------|
A#|-1------------3----|-3----3----3-----3-----3-----|-3-----3---------------------|
F#|-2------------0----|-0----0----4-----5-----4-----|-5-----4-----2-----0----2----|
C#|-3-------3----5----|-5----5----5-----5-----5-----|-5-----5-----2-----0---------|
G#|-------------------|-----------------------------|-----------------------------|
D#|-------------------|-----------------------------|-----------------------------|

D#|----------------------------------------------------|-------------------------------------------------------------|
A#|----------------------------------------------------|-------------------------------------------------------------|
F#|-2-----2----2----2----4----4----4----5----5----5----|-7----7----7----9----9----9----12---12---12---14---14---14---|
C#|----------------------------------------------------|-------------------------------------------------------------|
G#|----------------------------------------------------|-------------------------------------------------------------|
D#|----------------------------------------------------|-------------------------------------------------------------|

D#|-------------------------------------------------------------|-------------------------------------------------------------|
A#|-------------------------------------------------------------|-------------------------------------------------------------|
F#|-17---17---17---17---17---14---14---12---12---9----9----7----|-7----5----5----5----4----4----2----2----2----0----0----2----|
C#|-------------------------------------------------------------|-------------------------------------------------------------|
G#|-------------------------------------------------------------|-------------------------------------------------------------|
D#|-------------------------------------------------------------|-------------------------------------------------------------|

D#|--------------------------------------------------------|--------------------|---------|
A#|-----------------------------------------5----8----8----|-5----8------8------|-8-------|
F#|-2----2----2----2----2----4----5----7-------------------|--------------------|---------|
C#|--------------------------------------------------------|--------------------|---------|
G#|--------------------------------------------------------|--------------------|---------|
D#|--------------------------------------------------------|--------------------|---------|

D#|---------------------------|---------|
A#|---------------------------|---------|
F#|-X---X---------%----%------|-%-------|
C#|-X---X---7-----%----%------|-%-------|
G#|-X---X---7-----------------|---------|
D#|-X---X---5-----------------|---------|
Guns N' Roses - Nightrain (Almost Live)
Guns N' Roses - Nightrain (Almost Live).gp3