Guns N' Roses - Oh My God (2)

Guns N Roses



Title: Oh My God
Album: 
Artist: 
Author: Guns N' Roses

Track 1: Guitar 01
E|---------|-----------------------------------------|-------------------------------------|
B|---------|-----------------------------------------|-------------------------------------|
G|-%-------|-------------------------------%---------|-------------------------------------|
D|-%-------|-------------------------------%---------|-----------3--------------------1----|
A|---------|------2----3--------------1---------1----|------4---------4----2----4----------|
E|---------|-4--------------4----2-------------------|-4---------1-------------------------|

E|-----------------------------------------|-------------------------------------|-----------------------------------------|
B|-----------------------------------------|-------------------------------------|-----------------------------------------|
G|--------------------------------%--------|-------------------------------------|--------------------------------%--------|
D|--------------------------------%--------|-----------3--------------------1----|--------------------------------%--------|
A|------2----3--------------1---------1----|------4---------4----2----4----------|------2----3--------------1---------1----|
E|-4--------------4----2-------------------|-4---------1-------------------------|-4--------------4----2-------------------|

E|-------------------------------------|-----------------------------------------|-------------------------------------|
B|-------------------------------------|-----------------------------------------|-------------------------------------|
G|-------------------------------------|--------------------------------%--------|-------------------------------------|
D|-----------3--------------------1----|--------------------------------%--------|-----------3--------------------1----|
A|------4---------4----2----4----------|------2----3--------------1---------1----|------4---------4----2----4----------|
E|-4---------1-------------------------|-4--------------4----2-------------------|-4---------1-------------------------|

E|-----------------------------------------|-------------------------------------|-----------------------------------------|
B|-----------------------------------------|-------------------------------------|-----------------------------------------|
G|--------------------------------%--------|-------------------------------------|--------------------------------%--------|
D|--------------------------------%--------|-----------3--------------------1----|--------------------------------%--------|
A|------2----3--------------1---------1----|------4---------4----2----4----------|------2----3--------------1---------1----|
E|-4--------------4----2-------------------|-4---------1-------------------------|-4--------------4----2-------------------|

E|--------------------------------------------|-------------------------------|--------------------------------------------|
B|--------------------------------------------|-------------------------------|--------------------------------------------|
G|--------------------------------%-------%---|------%--------%--------%------|------%-------------%--------------%--------|
D|-----------3--------------------%---1---%---|------%---3----%---4----%------|------%--------3----%---4-----3----%--------|
A|------4---------4----2----4-----------------|-3--------1--------2-----------|-3--------6----1--------2-----1--------6----|
E|-4---------1--------------------------------|-1-----------------------------|-1--------4----------------------------4----|

E|-------------------------------|--------------------------------------------------|
B|-------------------------------|--------------------------------------------------|
G|------%--------%--------%------|------%-------------%--------%--------%-------%---|
D|------%---3----%---4----%------|------%--------3----%---4----%---3----%-------%---|
A|-3--------1--------2-----------|-3--------6----1--------2--------1--------6-------|
E|-1-----------------------------|-1--------4-------------------------------4-------|

E|-----------------------------------------------------------------|-----------------------------------------------------|
B|-----------------------------------------------------------------|-----------------------------------------------------|
G|-----------------------------------------------------------------|--------------------------------------------%--------|
D|-----------------------------------------------------------------|---------------------------------4-----3----%--------|
A|-6---6---6---6---6---6---6---6---6---6---6---6---6---6---6---6---|-6---6---6---6---6---6---6---6---2-----1--------4----|
E|-4---4---4---4---4---4---4---4---4---4---4---4---4---4---4---4---|-4---4---4---4---4---4---4---4------------------2----|

E|-------------------------------|--------------------------------------------|----------------------------|
B|-------------------------------|--------------------------------------------|----------------------------|
G|------%--------%--------%------|------%-------------%--------------%--------|------%--------------%------|
D|------%---3----%---4----%------|------%--------3----%---4-----3----%--------|------%---3-----4----%------|
A|-3--------1--------2-----------|-3--------6----1--------2-----1--------6----|-3--------1-----2-----------|
E|-1-----------------------------|-1--------4----------------------------4----|-1--------------------------|

E|--------------------------------------------------|-----------------------------------------------------------------|
B|--------------------------------------------------|-----------------------------------------------------------------|
G|------%-------------%--------%--------%-------%---|-----------------------------------------------------------------|
D|------%--------3----%---4----%---3----%-------%---|-----------------------------------------------------------------|
A|-3--------6----1--------2--------1--------6-------|-6---6---6---6---6---6---6---6---6---6---6---6---6---6---6---6---|
E|-1--------4-------------------------------4-------|-4---4---4---4---4---4---4---4---4---4---4---4---4---4---4---4---|

E|-----------------------------------------------------|---------------------------|
B|-----------------------------------------------------|---------------------------|
G|--------------------------------------------%--------|-----%--------%------%-----|
D|---------------------------------4-----3----%--------|-----%--------%------%-----|
A|-6---6---6---6---6---6---6---6---2-----1--------4----|-3-------3-----------------|
E|-4---4---4---4---4---4---4---4------------------2----|-1-------1-----------------|

E|---------------------------|---------------------------|-----------------------------------------------------------|
B|---------------------------|---------------------------|-----------------------------------------------------------|
G|-----%--------%------%-----|-----%--------%------%-----|-----%-------%--------------------%-------%----------------|
D|-----%--------%------%-----|-----%--------%------%-----|-----%-------%---3---4---3--------%-------%---3---4---3----|
A|-3-------3-----------------|-3-------3-----------------|-3-------3-------1---2---1----3-------3-------1---2---1----|
E|-1-------1-----------------|-1-------1-----------------|-1-------1--------------------1-------1--------------------|

E|-------------------------------------------------|-----------------------------------------------------------|
B|-------------------------------------------------|-----------------------------------------------------------|
G|-----%-------%--------------------%--------------|-----%-------%--------------------%-------%----------------|
D|-----%-------%---3---4---3--------%---4----3-----|-----%-------%---3---4---3--------%-------%---3---4---3----|
A|-3-------3-------1---2---1----3-------2----1-----|-3-------3-------1---2---1----3-------3-------1---2---1----|
E|-1-------1--------------------1------------------|-1-------1--------------------1-------1--------------------|

E|-------------------------------------------------|-----------------------------------------------------------|
B|-------------------------------------------------|-----------------------------------------------------------|
G|-----%-------%-----------%--------%--------------|-----%-------%--------------------%-------%----------------|
D|-----%-------%---3---3---%--------%---4----3-----|-----%-------%---3---4---3--------%-------%---3---4---3----|
A|-3-------3-------1---2--------3-------2----1-----|-3-------3-------1---2---1----3-------3-------1---2---1----|
E|-1-------1-----------6--------1------------------|-1-------1--------------------1-------1--------------------|

E|-------------------------------------------------|-----------------------------------------------------------|
B|-------------------------------------------------|-----------------------------------------------------------|
G|-----%-------%--------------------%--------------|-----%-------%--------------------%-------%-----------%----|
D|-----%-------%---3---4---3--------%---4----3-----|-----%-------%---3---4---3--------%-------%---3---3---%----|
A|-3-------3-------1---2---1----3-------2----1-----|-3-------3-------1---2---1----3-------3-------1---2--------|
E|-1-------1--------------------1------------------|-1-------1--------------------1-------1-----------6--------|

E|----------------------------------------------------|---------------------------------------|
B|----------------------------------------------------|---------------------------------------|
G|-----%-------%--------------------%-------------%---|-----%--------%-----%--------------%---|
D|-----%-------%---3---4---3--------%---3-----3---%---|-----%--------%-----%----1-----1---%---|
A|-3-------3-------1---2---1----3-------1-----1-------|-3-------3-----------------------------|
E|-1-------1--------------------1---------------------|-1-------1---------------4-----4-------|

E|-------------------------------|--------------------------------------------|----------------------------|
B|-------------------------------|--------------------------------------------|----------------------------|
G|------%--------%--------%------|------%-------------%--------------%--------|------%--------------%------|
D|------%---3----%---4----%------|------%--------3----%---4-----3----%--------|------%---3-----4----%------|
A|-3--------1--------2-----------|-3--------6----1--------2-----1--------6----|-3--------1-----2-----------|
E|-1-----------------------------|-1--------4----------------------------4----|-1--------------------------|

E|--------------------------------------------------|-----------------------------------------------------------------|
B|--------------------------------------------------|-----------------------------------------------------------------|
G|------%-------------%--------%--------%-------%---|-----------------------------------------------------------------|
D|------%--------3----%---4----%---3----%-------%---|-----------------------------------------------------------------|
A|-3--------6----1--------2--------1--------6-------|-6---6---6---6---6---6---6---6---6---6---6---6---6---6---6---6---|
E|-1--------4-------------------------------4-------|-4---4---4---4---4---4---4---4---4---4---4---4---4---4---4---4---|

E|-----------------------------------------------------|-------------------------------|
B|-----------------------------------------------------|-------------------------------|
G|--------------------------------------------%--------|------%--------%--------%------|
D|---------------------------------4-----3----%--------|------%---3----%---4----%------|
A|-6---6---6---6---6---6---6---6---2-----1--------4----|-3--------1--------2-----------|
E|-4---4---4---4---4---4---4---4------------------2----|-1-----------------------------|

E|--------------------------------------------|-------------------------------|--------------------------------------------------|
B|--------------------------------------------|-------------------------------|--------------------------------------------------|
G|------%-------------%--------------%--------|------%--------%--------%------|------%-------------%--------%--------%-------%---|
D|------%--------3----%---4-----3----%--------|------%---3----%---4----%------|------%--------3----%---4----%---3----%-------%---|
A|-3--------6----1--------2-----1--------6----|-3--------1--------2-----------|-3--------6----1--------2--------1--------6-------|
E|-1--------4----------------------------4----|-1-----------------------------|-1--------4-------------------------------4-------|

E|-----------------------------------------------------------------|-----------------------------------------------------|
B|-----------------------------------------------------------------|-----------------------------------------------------|
G|-----------------------------------------------------------------|--------------------------------------------%--------|
D|-----------------------------------------------------------------|---------------------------------4-----3----%--------|
A|-6---6---6---6---6---6---6---6---6---6---6---6---6---6---6---6---|-6---6---6---6---6---6---6---6---2-----1--------4----|
E|-4---4---4---4---4---4---4---4---4---4---4---4---4---4---4---4---|-4---4---4---4---4---4---4---4------------------2----|

E|---------------------------|---------------------------|---------------------------|
B|---------------------------|---------------------------|---------------------------|
G|-----%--------%------%-----|-----%--------%------%-----|-----%--------%------%-----|
D|-----%--------%------%-----|-----%--------%------%-----|-----%--------%------%-----|
A|-3-------3-----------------|-3-------3-----------------|-3-------3-----------------|
E|-1-------1-----------------|-1-------1-----------------|-1-------1-----------------|

E|-----------------------------------------------------------|-------------------------------------------------|
B|-----------------------------------------------------------|-------------------------------------------------|
G|-----%-------%--------------------%-------%----------------|-----%-------%--------------------%--------------|
D|-----%-------%---3---4---3--------%-------%---3---4---3----|-----%-------%---3---4---3--------%---4----3-----|
A|-3-------3-------1---2---1----3-------3-------1---2---1----|-3-------3-------1---2---1----3-------2----1-----|
E|-1-------1--------------------1-------1--------------------|-1-------1--------------------1------------------|

E|-----------------------------------------------------------|-------------------------------------------------|
B|-----------------------------------------------------------|-------------------------------------------------|
G|-----%-------%--------------------%-------%----------------|-----%-------%-----------%--------%--------------|
D|-----%-------%---3---4---3--------%-------%---3---4---3----|-----%-------%---3---3---%--------%---4----3-----|
A|-3-------3-------1---2---1----3-------3-------1---2---1----|-3-------3-------1---2--------3-------2----1-----|
E|-1-------1--------------------1-------1--------------------|-1-------1-----------6--------1------------------|

E|-----------------------------------------------------------|-------------------------------------------------|
B|-----------------------------------------------------------|-------------------------------------------------|
G|-----%-------%--------------------%-------%----------------|-----%-------%--------------------%--------------|
D|-----%-------%---3---4---3--------%-------%---3---4---3----|-----%-------%---3---4---3--------%---4----3-----|
A|-3-------3-------1---2---1----3-------3-------1---2---1----|-3-------3-------1---2---1----3-------2----1-----|
E|-1-------1--------------------1-------1--------------------|-1-------1--------------------1------------------|

E|-----------------------------------------------------------|----------------------------------------------------|
B|-----------------------------------------------------------|----------------------------------------------------|
G|-----%-------%--------------------%-------%-----------%----|-----%-------%--------------------%-------------%---|
D|-----%-------%---3---4---3--------%-------%---3---3---%----|-----%-------%---3---4---3--------%---3-----3---%---|
A|-3-------3-------1---2---1----3-------3-------1---2--------|-3-------3-------1---2---1----3-------1-----1-------|
E|-1-------1--------------------1-------1-----------6--------|-1-------1--------------------1---------------------|

E|---------|---------|---------|---------|-1-------|-1-------------|---------|-------------------|
B|-1-------|-1-------|-4-------|-4-------|---------|---------------|-1-------|-1-------1---------|
G|---------|---------|---------|---------|-3-------|-3------%------|---------|--------------%----|
D|-3-------|-3-------|-6-------|-6-------|---------|--------%------|-3-------|-3-------3----%----|
A|---------|---------|---------|---------|---------|---------------|---------|-------------------|
E|---------|---------|---------|---------|---------|---------------|---------|-------------------|

E|---------|---------|---------|---------|-1-------|-1-------------|---------|------------------------|
B|-1-------|-1-------|-4-------|-4-------|---------|---------------|-1-------|-1------1---------------|
G|---------|---------|---------|---------|-3-------|-3------%------|---------|-------------%-----%----|
D|-3-------|-3-------|-6-------|-6-------|---------|--------%------|-3-------|-3------3----%-----%----|
A|---------|---------|---------|---------|---------|---------------|---------|------------------------|
E|---------|---------|---------|---------|---------|---------------|---------|------------------------|

E|-----------------------------------------|-------------------------------------|-----------------------------------------|
B|-----------------------------------------|-------------------------------------|-----------------------------------------|
G|-------------------------------%---------|-------------------------------------|--------------------------------%--------|
D|-------------------------------%---------|-----------3--------------------1----|--------------------------------%--------|
A|------2----3--------------1---------1----|------4---------4----2----4----------|------2----3--------------1---------1----|
E|-4--------------4----2-------------------|-4---------1-------------------------|-4--------------4----2-------------------|

E|-------------------------------------|-----------------------------------------|-------------------------------------|
B|-------------------------------------|-----------------------------------------|-------------------------------------|
G|-------------------------------------|--------------------------------%--------|-------------------------------------|
D|-----------3--------------------1----|--------------------------------%--------|-----------3--------------------1----|
A|------4---------4----2----4----------|------2----3--------------1---------1----|------4---------4----2----4----------|
E|-4---------1-------------------------|-4--------------4----2-------------------|-4---------1-------------------------|

E|-----------------------------------------|-------------------------------------|-----------------------------------------|
B|-----------------------------------------|-------------------------------------|-----------------------------------------|
G|--------------------------------%--------|-------------------------------------|--------------------------------%--------|
D|--------------------------------%--------|-----------3--------------------1----|--------------------------------%--------|
A|------2----3--------------1---------1----|------4---------4----2----4----------|------2----3--------------1---------1----|
E|-4--------------4----2-------------------|-4---------1-------------------------|-4--------------4----2-------------------|

E|-------------------------------------|-----------------------------------------|--------------------------------------------|
B|-------------------------------------|-----------------------------------------|--------------------------------------------|
G|-------------------------------------|--------------------------------%--------|--------------------------------%-------%---|
D|-----------3--------------------1----|--------------------------------%--------|-----------3--------------------%---1---%---|
A|------4---------4----2----4----------|------2----3--------------1---------1----|------4---------4----2----4-----------------|
E|-4---------1-------------------------|-4--------------4----2-------------------|-4---------1--------------------------------|

E|-------------------------------|--------------------------------------------|-------------------------------|
B|-------------------------------|--------------------------------------------|-------------------------------|
G|------%--------%--------%------|------%-------------%--------------%--------|------%--------%--------%------|
D|------%---3----%---4----%------|------%--------3----%---4-----3----%--------|------%---3----%---4----%------|
A|-3--------1--------2-----------|-3--------6----1--------2-----1--------6----|-3--------1--------2-----------|
E|-1-----------------------------|-1--------4----------------------------4----|-1-----------------------------|

E|--------------------------------------------------|-----------------------------------------|
B|--------------------------------------------------|-----------------------------------------|
G|------%-------------%--------%--------%-------%---|------%---------%---------%---------%----|
D|------%--------3----%---4----%---3----%-------%---|------%---------%---------%---------%----|
A|-3--------6----1--------2--------1--------6-------|-3---------3---------3---------3---------|
E|-1--------4-------------------------------4-------|-1---------1---------1---------1---------|

E|-----------------------------------------------|-3-------3------------|---------|
B|---------------------------------------1---3---|----------------------|---------|
G|------%---------%---------%--------%-----------|-------------%----%---|-%-------|
D|------%---------%---------%--------%-----------|-------------%----%---|-%-------|
A|-3---------3---------3---------3---------------|----------------------|---------|
E|-1---------1---------1---------1---------------|----------------------|---------|

E|---------|---------|-----------------------------------------------------------|-------------------------------------------------|
B|---------|---------|-----------------------------------------------------------|-------------------------------------------------|
G|-%-------|-%-------|-----%-------%--------------------%-------%----------------|-----%-------%--------------------%--------------|
D|-%-------|-%-------|-----%-------%---3---4---3--------%-------%---3---4---3----|-----%-------%---3---4---3--------%---4----3-----|
A|---------|---------|-3-------3-------1---2---1----3-------3-------1---2---1----|-3-------3-------1---2---1----3-------2----1-----|
E|---------|---------|-1-------1--------------------1-------1--------------------|-1-------1--------------------1------------------|

E|-----------------------------------------------------------|-------------------------------------------------|
B|-----------------------------------------------------------|-------------------------------------------------|
G|-----%-------%--------------------%-------%----------------|-----%-------%-----------%--------%--------------|
D|-----%-------%---3---4---3--------%-------%---3---4---3----|-----%-------%---3---3---%--------%---4----3-----|
A|-3-------3-------1---2---1----3-------3-------1---2---1----|-3-------3-------1---2--------3-------2----1-----|
E|-1-------1--------------------1-------1--------------------|-1-------1-----------6--------1------------------|

E|-----------------------------------------------------------|-------------------------------------------------|
B|-----------------------------------------------------------|-------------------------------------------------|
G|-----%-------%--------------------%-------%----------------|-----%-------%--------------------%--------------|
D|-----%-------%---3---4---3--------%-------%---3---4---3----|-----%-------%---3---4---3--------%---4----3-----|
A|-3-------3-------1---2---1----3-------3-------1---2---1----|-3-------3-------1---2---1----3-------2----1-----|
E|-1-------1--------------------1-------1--------------------|-1-------1--------------------1------------------|

E|-----------------------------------------------------------|----------------------------------------------------|
B|-----------------------------------------------------------|----------------------------------------------------|
G|-----%-------%--------------------%-------%-----------%----|-----%-------%--------------------%-------------%---|
D|-----%-------%---3---4---3--------%-------%---3---3---%----|-----%-------%---3---4---3--------%---3-----3---%---|
A|-3-------3-------1---2---1----3-------3-------1---2--------|-3-------3-------1---2---1----3-------1-----1-------|
E|-1-------1--------------------1-------1-----------6--------|-1-------1--------------------1---------------------|

E|---------|---------|---------|---------|-1-------|-1-------------|---------|-------------------|
B|-1-------|-1-------|-4-------|-4-------|---------|---------------|-1-------|-1-------1---------|
G|---------|---------|---------|---------|-3-------|-3------%------|---------|--------------%----|
D|-3-------|-3-------|-6-------|-6-------|---------|--------%------|-3-------|-3-------3----%----|
A|---------|---------|---------|---------|---------|---------------|---------|-------------------|
E|---------|---------|---------|---------|---------|---------------|---------|-------------------|

E|---------|---------|---------|---------|-1-------|-1-------------|---------|-------------------|
B|-1-------|-1-------|-4-------|-4-------|---------|---------------|-1-------|-1-------1---------|
G|---------|---------|---------|---------|-3-------|-3------%------|---------|--------------%----|
D|-3-------|-3-------|-6-------|-6-------|---------|--------%------|-3-------|-3-------3----%----|
A|---------|---------|---------|---------|---------|---------------|---------|-------------------|
E|---------|---------|---------|---------|---------|---------------|---------|-------------------|
Guns N' Roses - Oh My God (2)
Guns N' Roses - Oh My God (2).gp3