Guns N' Roses - Out Ta Get Me (2)

Guns N' Roses - Out Ta Get Me (2)

Guns N Roses



Title: Out Ta Get Me
Album: Appetite For Destruction
Artist: Guns N' Roses
Author: Axl Rose, Slash, Izzy Stradlin, Duff McKagan and Steven Adler.

Track 1: Rhythm Guitar: Izzy
E|---------------------------------|-------------------------------------|---------------------------------|
B|---------------------------------|-------------------------------------|---------------------------------|
G|-%-----%-----%----0----3----0----|-0-----0-----------------------------|-5------3----3----0----3----0----|
D|-%-----%-----%----0----3----0----|-0-----0---------3----5----5---------|-5------3----3----0----3----0----|
A|---------------------------------|-----------------3----5----5---------|-3------1----1-------------------|
E|---------------------------------|------------3-------------------3----|---------------------------------|

E|-------------------------------------|---------------------------------|-------------------------------------|
B|-------------------------------------|---------------------------------|-------------------------------------|
G|-0-----0-----------------------------|-5------3----3----0----3----0----|-0-----0-----------------------------|
D|-0-----0---------3----5----5---------|-5------3----3----0----3----0----|-0-----0---------3----5----5---------|
A|-----------------3----5----5---------|-3------1----1-------------------|-----------------3----5----5---------|
E|------------3-------------------3----|---------------------------------|------------3-------------------3----|

E|---------------------------------|-------------------------------------|---------------------------------|
B|---------------------------------|-------------------------------------|---------------------------------|
G|-5------3----3----0----3----0----|-0-----0-----------------------------|-5------3----3----0----3----0----|
D|-5------3----3----0----3----0----|-0-----0---------3----5----5---------|-5------3----3----0----3----0----|
A|-3------1----1-------------------|-----------------3----5----5---------|-3------1----1-------------------|
E|---------------------------------|------------3-------------------3----|---------------------------------|

E|-------------------------------------|---------------------------------|-------------------------------------|
B|-------------------------------------|---------------------------------|-------------------------------------|
G|-0-----0-----------------------------|-5------3----3----0----3----0----|-0-----0-----------------------------|
D|-0-----0---------3----5----5---------|-5------3----3----0----3----0----|-0-----0---------3----5----5---------|
A|-----------------3----5----5---------|-3------1----1-------------------|-----------------3----5----5---------|
E|------------3-------------------3----|---------------------------------|------------3-------------------3----|

E|---------------------------------|-------------------------------------|---------------------------------|
B|---------------------------------|-------------------------------------|---------------------------------|
G|-5------3----3----0----3----0----|-0-----0-----------------------------|-5------3----3----0----3----0----|
D|-5------3----3----0----3----0----|-0-----0---------3----5----5---------|-5------3----3----0----3----0----|
A|-3------1----1-------------------|-----------------3----5----5---------|-3------1----1-------------------|
E|---------------------------------|------------3-------------------3----|---------------------------------|

E|-------------------------------------|-----------------------------|---------|----------------------------|
B|-------------------------------------|-----------------------------|---------|----------------------------|
G|-0-----0-----------------------------|-5------3-----0----3----0----|-0-------|-0------0----0----3----0----|
D|-0-----0---------3----5----5---------|-5------3-----0----3----0----|-0-------|-0------0----0----3----0----|
A|-----------------3----5----5---------|-3------1--------------------|---------|----------------------------|
E|------------3-------------------3----|-----------------------------|---------|----------------------------|

E|---------|----------------------------|---------|----------------------------|---------|
B|---------|----------------------------|---------|----------------------------|---------|
G|-0-------|-0------0----0----3----0----|-0-------|-0------0----0----3----0----|-0-------|
D|-0-------|-0------0----0----3----0----|-0-------|-0------0----0----3----0----|-0-------|
A|---------|----------------------------|---------|----------------------------|---------|
E|---------|----------------------------|---------|----------------------------|---------|

E|-------------------------------------|-----------------------------------------|-----------------------------------------------|
B|-------------------------------------|-----------7--------------5--------------|-3--------------1----1----0----1---0-----------|
G|-5-----%----4----%----5----%----6----|-7---------7--------------5--------------|-4--------------2----2-----------------2---0---|
D|-5-----%----4----%----5----%----6----|-7----0---------0----0---------0----0----|------0----0-----------------------------------|
A|-3----------2---------3---------4----|-5---------------------------------------|-----------------------------------------------|
E|-------------------------------------|-----------------------------------------|-----------------------------------------------|

E|---------------------------------------------|---------------------------------------------|
B|---------------------------------------------|---------------------------------------------|
G|-----------------5---------------------3-----|-----------------5---------------------3-----|
D|-----------------5---------------------3-----|-----------------5---------------------3-----|
A|-3---3---3---3---3-----3---3---3---3---3-----|-3---3---3---3---3-----3---3---3---3---3-----|
E|---------------------------------------------|---------------------------------------------|

E|-----------------------------------------|-----------------------------------------------|
B|-----------7--------------5--------------|-3--------------1----1----0----1---0-----------|
G|-----------7--------------5--------------|-4--------------2----2-----------------2---0---|
D|-0----0---------0----0---------0----0----|------0----0-----------------------------------|
A|-----------------------------------------|-----------------------------------------------|
E|-----------------------------------------|-----------------------------------------------|

E|---------------------------------------------|---------------------------------------------|
B|---------------------------------------------|---------------------------------------------|
G|-----------------5---------------------3-----|-----------------5---------------------3-----|
D|-----------------5---------------------3-----|-----------------5---------------------3-----|
A|-3---3---3---3---3-----3---3---3---3---3-----|-3---3---3---3---3-----3---3---3---3---3-----|
E|---------------------------------------------|---------------------------------------------|

E|-----------------------------------------|-----------------------------------------------|
B|-----------7--------------5--------------|-3--------------1----1----0----1---0-----------|
G|-----------7--------------5--------------|-4--------------2----2-----------------2---0---|
D|-0----0---------0----0---------0----0----|------0----0-----------------------------------|
A|-----------------------------------------|-----------------------------------------------|
E|-----------------------------------------|-----------------------------------------------|

E|---------------------------------------------|---------------------------------------------|
B|---------------------------------------------|---------------------------------------------|
G|-----------------5---------------------3-----|-----------------5---------------------3-----|
D|-----------------5---------------------3-----|-----------------5---------------------3-----|
A|-3---3---3---3---3-----3---3---3---3---3-----|-3---3---3---3---3-----3---3---3---3---3-----|
E|---------------------------------------------|---------------------------------------------|

E|-----------------------------------------|-----------------------------------------------|
B|-----------7--------------5--------------|-3--------------1----1----0----1---0-----------|
G|-----------7--------------5--------------|-4--------------2----2-----------------2---0---|
D|-0----0---------0----0---------0----0----|------0----0-----------------------------------|
A|-----------------------------------------|-----------------------------------------------|
E|-----------------------------------------|-----------------------------------------------|

E|-----------------------------------------|-----------------------------------------|
B|-----------------------------------------|-----------------------------------------|
G|-5----5----5----5----5----5----5----5----|-3----3----3----3----3---------3---------|
D|-5----5----5----5----5----5----5----5----|-3----3----3----3----3----5----3----5----|
A|-3----3----3----3----3----3----3----3----|-1----1----1----1----1----5----1----5----|
E|-----------------------------------------|--------------------------3---------3----|

E|-------------------------------------|---------------------------------|-------------------------------------|
B|-------------------------------------|---------------------------------|-------------------------------------|
G|-0-----0-----------------------------|-5------3----3----0----3----0----|-0-----0-----------------------------|
D|-0-----0---------3----5----5---------|-5------3----3----0----3----0----|-0-----0---------3----5----5---------|
A|-----------------3----5----5---------|-3------1----1-------------------|-----------------3----5----5---------|
E|------------3-------------------3----|---------------------------------|------------3-------------------3----|

E|---------------------------------|-------------------------------------|---------------------------------|
B|---------------------------------|-------------------------------------|---------------------------------|
G|-5------3----3----0----3----0----|-0-----0-----------------------------|-5------3----3----0----3----0----|
D|-5------3----3----0----3----0----|-0-----0---------3----5----5---------|-5------3----3----0----3----0----|
A|-3------1----1-------------------|-----------------3----5----5---------|-3------1----1-------------------|
E|---------------------------------|------------3-------------------3----|---------------------------------|

E|-------------------------------------|-----------------------------|---------|----------------------------|
B|-------------------------------------|-----------------------------|---------|----------------------------|
G|-0-----0-----------------------------|-5------3-----0----3----0----|-0-------|-0------0----0----3----0----|
D|-0-----0---------3----5----5---------|-5------3-----0----3----0----|-0-------|-0------0----0----3----0----|
A|-----------------3----5----5---------|-3------1--------------------|---------|----------------------------|
E|------------3-------------------3----|-----------------------------|---------|----------------------------|

E|---------|----------------------------|---------|----------------------------|---------|
B|---------|----------------------------|---------|----------------------------|---------|
G|-0-------|-0------0----0----3----0----|-0-------|-0------0----0----3----0----|-0-------|
D|-0-------|-0------0----0----3----0----|-0-------|-0------0----0----3----0----|-0-------|
A|---------|----------------------------|---------|----------------------------|---------|
E|---------|----------------------------|---------|----------------------------|---------|

E|-------------------------------------|-----------------------------------------|-----------------------------------------------|
B|-------------------------------------|-----------7--------------5--------------|-3--------------1----1----0----1---0-----------|
G|-5-----%----4----%----5----%----6----|-7---------7--------------5--------------|-4--------------2----2-----------------2---0---|
D|-5-----%----4----%----5----%----6----|-7----0---------0----0---------0----0----|------0----0-----------------------------------|
A|-3----------2---------3---------4----|-5---------------------------------------|-----------------------------------------------|
E|-------------------------------------|-----------------------------------------|-----------------------------------------------|

E|---------------------------------------------|---------------------------------------------|
B|---------------------------------------------|---------------------------------------------|
G|-----------------5---------------------3-----|-----------------5---------------------3-----|
D|-----------------5---------------------3-----|-----------------5---------------------3-----|
A|-3---3---3---3---3-----3---3---3---3---3-----|-3---3---3---3---3-----3---3---3---3---3-----|
E|---------------------------------------------|---------------------------------------------|

E|-----------------------------------------|-----------------------------------------------|
B|-----------7--------------5--------------|-3--------------1----1----0----1---0-----------|
G|-----------7--------------5--------------|-4--------------2----2-----------------2---0---|
D|-0----0---------0----0---------0----0----|------0----0-----------------------------------|
A|-----------------------------------------|-----------------------------------------------|
E|-----------------------------------------|-----------------------------------------------|

E|---------------------------------------------|---------------------------------------------|
B|---------------------------------------------|---------------------------------------------|
G|-----------------5---------------------3-----|-----------------5---------------------3-----|
D|-----------------5---------------------3-----|-----------------5---------------------3-----|
A|-3---3---3---3---3-----3---3---3---3---3-----|-3---3---3---3---3-----3---3---3---3---3-----|
E|---------------------------------------------|---------------------------------------------|

E|-----------------------------------------|-----------------------------------------------|
B|-----------7--------------5--------------|-3--------------1----1----0----1---0-----------|
G|-----------7--------------5--------------|-4--------------2----2-----------------2---0---|
D|-0----0---------0----0---------0----0----|------0----0-----------------------------------|
A|-----------------------------------------|-----------------------------------------------|
E|-----------------------------------------|-----------------------------------------------|

E|---------------------------------------------|---------------------------------------------|
B|---------------------------------------------|---------------------------------------------|
G|-----------------5---------------------3-----|-----------------5---------------------3-----|
D|-----------------5---------------------3-----|-----------------5---------------------3-----|
A|-3---3---3---3---3-----3---3---3---3---3-----|-3---3---3---3---3-----3---3---3---3---3-----|
E|---------------------------------------------|---------------------------------------------|

E|-----------------------------------------|-----------------------------------------------|
B|-----------7--------------5--------------|-3--------------1----1----0----1---0-----------|
G|-----------7--------------5--------------|-4--------------2----2-----------------2---0---|
D|-0----0---------0----0---------0----0----|------0----0-----------------------------------|
A|-----------------------------------------|-----------------------------------------------|
E|-----------------------------------------|-----------------------------------------------|

E|-----------------------------------------|-----------------------------------------|
B|-----------------------------------------|-----------------------------------------|
G|-5----5----5----5----5----5----5----5----|-3----3----3----3----3---------3---------|
D|-5----5----5----5----5----5----5----5----|-3----3----3----3----3----5----3----5----|
A|-3----3----3----3----3----3----3----3----|-1----1----1----1----1----5----1----5----|
E|-----------------------------------------|--------------------------3---------3----|

E|-------------------------------------|---------------------------------|-------------------------------------|
B|-------------------------------------|---------------------------------|-------------------------------------|
G|-0-----0-----------------------------|-5------3----3----0----3----0----|-0-----0-----------------------------|
D|-0-----0---------3----5----5---------|-5------3----3----0----3----0----|-0-----0---------3----5----5---------|
A|-----------------3----5----5---------|-3------1----1-------------------|-----------------3----5----5---------|
E|------------3-------------------3----|---------------------------------|------------3-------------------3----|

E|---------------------------------|-------------------------------------|---------------------------------|
B|---------------------------------|-------------------------------------|---------------------------------|
G|-5------3----3----0----3----0----|-0-----0-----------------------------|-5------3----3----0----3----0----|
D|-5------3----3----0----3----0----|-0-----0---------3----5----5---------|-5------3----3----0----3----0----|
A|-3------1----1-------------------|-----------------3----5----5---------|-3------1----1-------------------|
E|---------------------------------|------------3-------------------3----|---------------------------------|

E|-------------------------------------|-------------------------------------|---------------------------------|
B|-------------------------------------|-------------------------------------|---------------------------------|
G|-0-----0-----------------------------|-5-----%----2----%----3----%----4----|-5-----5-----3----5----3----5----|
D|-0-----0---------3----5----5---------|-5-----%----2----%----3----%----4----|-5-----5-----3----5----3----5----|
A|-----------------3----5----5---------|-3----------0---------1---------2----|-3-----3-----3----3----3----3----|
E|------------3-------------------3----|-------------------------------------|---------------------------------|

E|---------------------------------|---------------------------------|---------------------------------|
B|---------------------------------|---------------------------------|---------------------------------|
G|-5-----5-----3----5----3---------|---------------------------------|------------------3----4----5----|
D|-5-----5-----3----5----3----5----|-5-----5-----3----5----3----5----|-5-----5-----5----3----4----5----|
A|-3-----3-----3----3----3----5----|-5-----5-----3----5----3----5----|-5-----5-----5----1----2----3----|
E|----------------------------3----|-3-----3-----3----3----3----3----|-3-----3-----3-------------------|

E|---------------------------------|---------------------------------|---------------------------------|
B|---------------------------------|---------------------------------|---------------------------------|
G|-5-----5-----3----5----3----5----|-5-----5-----3----5----3---------|---------------------------------|
D|-5-----5-----3----5----3----5----|-5-----5-----3----5----3----5----|-5-----5-----3----5----3----5----|
A|-3-----3-----3----3----3----3----|-3-----3-----3----3----3----5----|-5-----5-----3----5----3----5----|
E|---------------------------------|----------------------------3----|-3-----3-----3----3----3----3----|

E|---------------------------------|---------------------------------|---------------------------------|
B|---------------------------------|---------------------------------|---------------------------------|
G|------------------3----4----5----|-5-----5-----3----5----3----5----|-5-----5-----3----5----3---------|
D|-5-----5-----5----3----4----5----|-5-----5-----3----5----3----5----|-5-----5-----3----5----3----5----|
A|-5-----5-----5----1----2----3----|-3-----3-----3----3----3----3----|-3-----3-----3----3----3----5----|
E|-3-----3-----3-------------------|---------------------------------|----------------------------3----|

E|---------------------------------|---------------------------------|---------------------------------|
B|---------------------------------|---------------------------------|---------------------------------|
G|---------------------------------|------------------3----4----5----|-5-----5-----3----5----3----5----|
D|-5-----5-----3----5----3----5----|-5-----5-----5----3----4----5----|-5-----5-----3----5----3----5----|
A|-5-----5-----3----5----3----5----|-5-----5-----5----1----2----3----|-3-----3-----3----3----3----3----|
E|-3-----3-----3----3----3----3----|-3-----3-----3-------------------|---------------------------------|

E|-------------------------------------|-----------------------------------------|---------------------------------|
B|-------------------------------------|-----------------------------------------|---------------------------------|
G|-5-----5----5----5----5----5----5----|-7----7----7----7----7----7----7----7----|-7-----%-----%--------------2----|
D|-5-----5----5----5----5----5----5----|-7----7----7----7----7----7----7----7----|-7-----%-----%----2----5----2----|
A|-3-----3----3----3----3----3----3----|-5----5----5----5----5----5----5----5----|-5----------------2----5----0----|
E|-------------------------------------|-----------------------------------------|------------------0----3---------|

E|-------------------------------------|---------------------------------|-------------------------------------|
B|-------------------------------------|---------------------------------|-------------------------------------|
G|-2-----2----2---------2----2----2----|-7------5----5----2----5----2----|-2-----2----2---------2----2----2----|
D|-2-----2----2----5----2----2----2----|-7------5----5----2----5----2----|-2-----2----2----5----2----2----2----|
A|-0-----0----0----5----0----0----0----|-5------3----3----0----3----0----|-0-----0----0----5----0----0----0----|
E|-----------------3-------------------|---------------------------------|-----------------3-------------------|

E|---------------------------------|-------------------------------------|---------------------------------|
B|---------------------------------|-------------------------------------|---------------------------------|
G|-7------5----5----2----5----2----|-2-----2----2---------2----2----2----|-7------5----5----2----5----2----|
D|-7------5----5----2----5----2----|-2-----2----2----5----2----2----2----|-7------5----5----2----5----2----|
A|-5------3----3----0----3----0----|-0-----0----0----5----0----0----0----|-5------3----3----0----3----0----|
E|---------------------------------|-----------------3-------------------|---------------------------------|

E|-------------------------------------|---------|-----------------------------|-----------------------------------------|
B|-------------------------------------|---------|-----------------------------|-1---1-----1-----------------------------|
G|-2-----2----2---------2----2----2----|-2-------|-2-----2---2-----2----0------|-0---0-----0----5--------------3---------|
D|-2-----2----2----5----2----2----2----|-2-------|-2-----2---2-----2----0------|-2---2-----2----5----5----5----3----5----|
A|-0-----0----0----5----0----0----0----|-0-------|-0-----0---0-----0----2------|-3---3-----3----3----3----5----1----5----|
E|-----------------3-------------------|---------|----------------------3------|--------------------------3---------3----|

E|-----------------------------|----------------1----1-------------------|-----------------------------|
B|-----------------------------|----------------1----1-------------------|-----------------------------|
G|-3-----2---2-----2----0------|-%---%-----%----2----2---------3---------|-------2---2-----2----0------|
D|-5-----2---2-----2----0------|-%---%-----%----3----3----5----3----5----|-5-----2---2-----2----0------|
A|-------0---0-----0----2------|--------------------------5----1----5----|-5-----0---0-----0----2------|
E|-3--------------------3------|--------------------------3---------3----|-3--------------------3------|

E|-----------------------------------------|-----------------------------|----------------1----1-------------------|
B|-1---1-----1-----------------------------|-----------------------------|----------------1----1-------------------|
G|-0---0-----0----5--------------3---------|-3-----2---2-----2----0------|-%---%-----%----2----2---------3---------|
D|-2---2-----2----5----5----5----3----5----|-5-----2---2-----2----0------|-%---%-----%----3----3----5----3----5----|
A|-3---3-----3----3----3----5----1----5----|-------0---0-----0----2------|--------------------------5----1----5----|
E|--------------------------3---------3----|-3--------------------3------|--------------------------3---------3----|

E|-----------------------------|-----------------------------------------|-----------------------------|
B|-----------------------------|-1---1-----1-----------------------------|-----------------------------|
G|-------2---2-----2----0------|-0---0-----0----5--------------3---------|-3-----2---2-----2----0------|
D|-5-----2---2-----2----0------|-2---2-----2----5----5----5----3----5----|-5-----2---2-----2----0------|
A|-5-----0---0-----0----2------|-3---3-----3----3----3----5----1----5----|-------0---0-----0----2------|
E|-3--------------------3------|--------------------------3---------3----|-3--------------------3------|

E|--------1----1------|-------------------------------------|---------------------------------|
B|--------1----1------|-------------------------------------|---------------------------------|
G|-0------2----2------|-0-----0-----------------------------|-5------3----3----0----3----0----|
D|-0------3----3------|-0-----0---------3----5----5---------|-5------3----3----0----3----0----|
A|-2------------------|-----------------3----5----5---------|-3------1----1-------------------|
E|-3------------------|------------3-------------------3----|---------------------------------|

E|-----------------------------|-----------------------------------------|-----------------------------|
B|-----------------------------|-1---1-----1-----------------------------|-----------------------------|
G|-0-----2---2-----2----0------|-0---0-----0----5--------------3---------|-------2---2-----2----0------|
D|-0-----2---2-----2----0------|-2---2-----2----5----5----5----3----5----|-5-----2---2-----2----0------|
A|-------0---0-----0----2------|-3---3-----3----3----3----5----1----5----|-5-----0---0-----0----2------|
E|----------------------3------|--------------------------3---------3----|-3--------------------3------|

E|-1---1-----1-----------------------------|-----------------------------|-----------------------------------------|
B|-1---1-----1-----------------------------|-----------------------------|-1---1-----1-----------------------------|
G|-2---2-----2----3----3---------3---------|-3-----2---2-----2----0------|-0---0-----0----5--------------3---------|
D|-3---3-----3----3----3----5----3----5----|-5-----2---2-----2----0------|-2---2-----2----5----5----5----3----5----|
A|----------------3---------5----1----5----|-5-----0---0-----0----2------|-3---3-----3----3----3----5----1----5----|
E|--------------------------3---------3----|----------------------3------|--------------------------3---------3----|

E|-----------------------------|-1---1-----1----1----1-------------------|-----------------------------|
B|-----------------------------|-1---1----------1----1-------------------|-----------------------------|
G|-------2---2-----2----0------|-2---2-----2----2----2---------3---------|-3-----2---2-----2----0------|
D|-5-----2---2-----2----0------|-3---3-----3----3----3----5----3----5----|-5-----2---2-----2----0------|
A|-5-----0---0-----0----2------|--------------------------5----1----5----|-------0---0-----0----2------|
E|-3--------------------3------|--------------------------3---------3----|----------------------3------|

E|-----------------------------------------|-------------------------------------|---------------------------------|
B|-1---1-----1-----------------------------|-------------------------------------|---------------------------------|
G|-0---0-----0----5--------------3---------|-0-----0-----------------------------|-5------3----3----0----3----0----|
D|-2---2-----2----5----5----5----3----5----|-0-----0---------3----5----5---------|-5------3----3----0----3----0----|
A|-3---3-----3----3----3----5----1----5----|-----------------3----5----5---------|-3------1----1-------------------|
E|--------------------------3---------3----|------------3-------------------3----|---------------------------------|

E|-------------------------------------|---------------------------------|-------------------------------------|
B|-------------------------------------|---------------------------------|-------------------------------------|
G|-0-----0-----------------------------|-5------3----3----0----3----0----|-0-----0-----------------------------|
D|-0-----0---------3----5----5---------|-5------3----3----0----3----0----|-0-----0---------3----5----5---------|
A|-----------------3----5----5---------|-3------1----1-------------------|-----------------3----5----5---------|
E|------------3-------------------3----|---------------------------------|------------3-------------------3----|

E|---------------------------------|-------------------------------------|---------------------------------|
B|---------------------------------|-------------------------------------|---------------------------------|
G|-5------3----3----0----3----0----|-0-----0-----------------------------|-5------3----3----0----3----0----|
D|-5------3----3----0----3----0----|-0-----0---------3----5----5---------|-5------3----3----0----3----0----|
A|-3------1----1-------------------|-----------------3----5----5---------|-3------1----1-------------------|
E|---------------------------------|------------3-------------------3----|---------------------------------|

E|-------------------------------------|---------------------------------|-------------------------------------|
B|-------------------------------------|---------------------------------|-------------------------------------|
G|-0-----0-----------------------------|-5------3----3----0----3----0----|-0-----0-----------------------------|
D|-0-----0---------3----5----5---------|-5------3----3----0----3----0----|-0-----0---------3----5----5---------|
A|-----------------3----5----5---------|-3------1----1-------------------|-----------------3----5----5---------|
E|------------3-------------------3----|---------------------------------|------------3-------------------3----|

E|---------------------------------|-------------------------------------|---------------------------------|
B|---------------------------------|-------------------------------------|---------------------------------|
G|-5------3----3----0----3----0----|-0-----0-----------------------------|-5------3----3----0----3----0----|
D|-5------3----3----0----3----0----|-0-----0---------3----5----5---------|-5------3----3----0----3----0----|
A|-3------1----1-------------------|-----------------3----5----5---------|-3------1----1-------------------|
E|---------------------------------|------------3-------------------3----|---------------------------------|

E|-------------------------------------|---------------15----|-15------|-15------|
B|-------------------------------------|---------------------|---------|---------|
G|-0-----0-----------------------------|-5------3------------|---------|---------|
D|-0-----0---------3----5----5---------|-5------3------------|---------|---------|
A|-----------------3----5----5---------|-3------1------------|---------|---------|
E|------------3-------------------3----|---------------------|---------|---------|
Guns N' Roses - Out Ta Get Me (2)
Guns N' Roses - Out Ta Get Me (2).gp3