Guns'N Roses - Paradise City

Guns'N Roses - Paradise City

Guns N Roses



Title: Paradise City
Album: 
Artist: 
Author: Guns'N'Roses

Track 1: Clean Chorus Guitar
D#|-3-----3-----------3---3------------3---------------|-----------------3-----------3---3------------3---------------|
A#|-0---------0---------------0------------0-------0---|-1-------------------1---------------1------------1-------1---|
F#|-0-------------0---------------0------------0-------|-0-----------------------0---------------0------------0-------|
C#|-0--------------------------------------------------|-0---2-------2------------------------------------------------|
G#|-2--------------------------------------------------|---------3----------------------------------------------------|
D#|-3--------------------------------------------------|--------------------------------------------------------------|

D#|--------------3-------------------------------3---------------|-------3-----------3---3-------------------------------------------|
A#|-1--------1-------1-------1---1-----------1-------1-------0---|-0---------0---------------0-----------0-----------0---------------|
F#|-0---2----------------2-------0-----------------------0-------|-0-------------0---------------0---2-------0---0---------------0---|
C#|-0---3------------------------0---2---------------------------|-0-----------------------------------------------------0---2-------|
G#|--------------------------------------3-----------------------|-2-----------------------------------------------------------------|
D#|--------------------------------------------------------------|-3-----------------------------------------------------------------|

D#|-3-----3-----------3---3------------3---------------|-----------------3-----------3---3------------3---------------|
A#|-0---------0---------------0------------0-------0---|-1-------------------1---------------1------------1-------1---|
F#|-0-------------0---------------0------------0-------|-0-----------------------0---------------0------------0-------|
C#|-0--------------------------------------------------|-0---2-------2------------------------------------------------|
G#|-2--------------------------------------------------|---------3----------------------------------------------------|
D#|-3--------------------------------------------------|--------------------------------------------------------------|

D#|--------------3-------------------------------3---------------|-------3-----------3---3-------------------------------------------|
A#|-1--------1-------1-------1---1-----------1-------1-------0---|-0---------0---------------0-----------0-----------0---------------|
F#|-0---2----------------2-------0-----------------------0-------|-0-------------0---------------0---2-------0---0---------------0---|
C#|-0---3------------------------0---2---------------------------|-0-----------------------------------------------------0---2-------|
G#|--------------------------------------3-----------------------|-2-----------------------------------------------------------------|
D#|--------------------------------------------------------------|-3-----------------------------------------------------------------|

D#|-3-----3-----------3---3------------3---------------|-----------------3-----------3---3------------3---------------|
A#|-0---------0---------------0------------0-------0---|-1-------------------1---------------1------------1-------1---|
F#|-0-------------0---------------0------------0-------|-0-----------------------0---------------0------------0-------|
C#|-0--------------------------------------------------|-0---2-------2------------------------------------------------|
G#|-2--------------------------------------------------|---------3----------------------------------------------------|
D#|-3--------------------------------------------------|--------------------------------------------------------------|

D#|--------------3-------------------------------3---------------|-------3-----------3---3-------------------------------------------|
A#|-1--------1-------1-------1---1-----------1-------1-------0---|-0---------0---------------0-----------0-----------0---------------|
F#|-0---2----------------2-------0-----------------------0-------|-0-------------0---------------0---2-------0---0---------------0---|
C#|-0---3------------------------0---2---------------------------|-0-----------------------------------------------------0---2-------|
G#|--------------------------------------3-----------------------|-2-----------------------------------------------------------------|
D#|--------------------------------------------------------------|-3-----------------------------------------------------------------|

D#|-3-----3-----------3---3------------3---------------|-----------------3-----------3---3------------3---------------|
A#|-0---------0---------------0------------0-------0---|-1-------------------1---------------1------------1-------1---|
F#|-0-------------0---------------0------------0-------|-0-----------------------0---------------0------------0-------|
C#|-0--------------------------------------------------|-0---2-------2------------------------------------------------|
G#|-2--------------------------------------------------|---------3----------------------------------------------------|
D#|-3--------------------------------------------------|--------------------------------------------------------------|

D#|--------------3-------------------------------3---------------|-------3-----------3---3-------------------------------------------|
A#|-1--------1-------1-------1---1-----------1-------1-------0---|-0---------0---------------0-----------0-----------0---------------|
F#|-0---2----------------2-------0-----------------------0-------|-0-------------0---------------0---2-------0---0---------------0---|
C#|-0---3------------------------0---2---------------------------|-0-----------------------------------------------------0---2-------|
G#|--------------------------------------3-----------------------|-2-----------------------------------------------------------------|
D#|--------------------------------------------------------------|-3-----------------------------------------------------------------|

D#|-3-----3-----------3---3------------3---------------|-----------------3-----------3---3------------3---------------|
A#|-0---------0---------------0------------0-------0---|-1-------------------1---------------1------------1-------1---|
F#|-0-------------0---------------0------------0-------|-0-----------------------0---------------0------------0-------|
C#|-0--------------------------------------------------|-0---2-------2------------------------------------------------|
G#|-2--------------------------------------------------|---------3----------------------------------------------------|
D#|-3--------------------------------------------------|--------------------------------------------------------------|

D#|--------------3-------------------------------3---------------|-------3-----------3---3-------------------------------------------|
A#|-1--------1-------1-------1---1-----------1-------1-------0---|-0---------0---------------0-----------0-----------0---------------|
F#|-0---2----------------2-------0-----------------------0-------|-0-------------0---------------0---2-------0---0---------------0---|
C#|-0---3------------------------0---2---------------------------|-0-----------------------------------------------------0---2-------|
G#|--------------------------------------3-----------------------|-2-----------------------------------------------------------------|
D#|--------------------------------------------------------------|-3-----------------------------------------------------------------|

D#|-3-----3-----------3---3------------3---------------|-----------------3-----------3---3------------3---------------|
A#|-0---------0---------------0------------0-------0---|-1-------------------1---------------1------------1-------1---|
F#|-0-------------0---------------0------------0-------|-0-----------------------0---------------0------------0-------|
C#|-0--------------------------------------------------|-0---2-------2------------------------------------------------|
G#|-2--------------------------------------------------|---------3----------------------------------------------------|
D#|-3--------------------------------------------------|--------------------------------------------------------------|

D#|--------------3-------------------------------3---------------|-------3-----------3---3-------------------------------------------|
A#|-1--------1-------1-------1---1-----------1-------1-------0---|-0---------0---------------0-----------0-----------0---------------|
F#|-0---2----------------2-------0-----------------------0-------|-0-------------0---------------0---2-------0---0---------------0---|
C#|-0---3------------------------0---2---------------------------|-0-----------------------------------------------------0---2-------|
G#|--------------------------------------3-----------------------|-2-----------------------------------------------------------------|
D#|--------------------------------------------------------------|-3-----------------------------------------------------------------|

D#|---------|---------|---------|---------|---------|---------|---------|---------|
A#|---------|---------|---------|---------|---------|---------|---------|---------|
F#|-%-------|-%-------|-%-------|-%-------|-%-------|-%-------|-%-------|-%-------|
C#|-%-------|-%-------|-%-------|-%-------|-%-------|-%-------|-%-------|-%-------|
G#|---------|---------|---------|---------|---------|---------|---------|---------|
D#|---------|---------|---------|---------|---------|---------|---------|---------|

D#|---------|---------|---------|---------|---------|---------|---------|--------|---------|
A#|---------|---------|---------|---------|---------|---------|---------|--------|---------|
F#|-%-------|-%-------|-%-------|-%-------|-%-------|-%-------|-%-------|-%------|-%-------|
C#|-%-------|-%-------|-%-------|-%-------|-%-------|-%-------|-%-------|-%------|-%-------|
G#|---------|---------|---------|---------|---------|---------|---------|--------|---------|
D#|---------|---------|---------|---------|---------|---------|---------|--------|---------|

D#|---------|---------|---------|---------|---------|---------|---------|---------|
A#|---------|---------|---------|---------|---------|---------|---------|---------|
F#|-%-------|-%-------|-%-------|-%-------|-%-------|-%-------|-%-------|-%-------|
C#|-%-------|-%-------|-%-------|-%-------|-%-------|-%-------|-%-------|-%-------|
G#|---------|---------|---------|---------|---------|---------|---------|---------|
D#|---------|---------|---------|---------|---------|---------|---------|---------|

D#|--------|---------|---------|---------|---------|---------|---------|---------|---------|
A#|--------|---------|---------|---------|---------|---------|---------|---------|---------|
F#|-%------|-%-------|-%-------|-%-------|-%-------|-%-------|-%-------|-%-------|-%-------|
C#|-%------|-%-------|-%-------|-%-------|-%-------|-%-------|-%-------|-%-------|-%-------|
G#|--------|---------|---------|---------|---------|---------|---------|---------|---------|
D#|--------|---------|---------|---------|---------|---------|---------|---------|---------|

D#|---------|---------|---------|---------|---------|---------|---------|---------|
A#|---------|---------|---------|---------|---------|---------|---------|---------|
F#|-%-------|-%-------|-%-------|-%-------|-%-------|-%-------|-%-------|-%-------|
C#|-%-------|-%-------|-%-------|-%-------|-%-------|-%-------|-%-------|-%-------|
G#|---------|---------|---------|---------|---------|---------|---------|---------|
D#|---------|---------|---------|---------|---------|---------|---------|---------|

D#|---------|--------|---------|---------|---------|---------|---------|---------|---------|
A#|---------|--------|---------|---------|---------|---------|---------|---------|---------|
F#|-%-------|-%------|-%-------|-%-------|-%-------|-%-------|-%-------|-%-------|-%-------|
C#|-%-------|-%------|-%-------|-%-------|-%-------|-%-------|-%-------|-%-------|-%-------|
G#|---------|--------|---------|---------|---------|---------|---------|---------|---------|
D#|---------|--------|---------|---------|---------|---------|---------|---------|---------|

D#|---------|---------|---------|---------|---------|---------|---------|---------|
A#|---------|---------|---------|---------|---------|---------|---------|---------|
F#|-%-------|-%-------|-%-------|-%-------|-%-------|-%-------|-%-------|-%-------|
C#|-%-------|-%-------|-%-------|-%-------|-%-------|-%-------|-%-------|-%-------|
G#|---------|---------|---------|---------|---------|---------|---------|---------|
D#|---------|---------|---------|---------|---------|---------|---------|---------|

D#|---------|---------|--------|---------|---------|---------|---------|---------|---------|
A#|---------|---------|--------|---------|---------|---------|---------|---------|---------|
F#|-%-------|-%-------|-%------|-%-------|-%-------|-%-------|-%-------|-%-------|-%-------|
C#|-%-------|-%-------|-%------|-%-------|-%-------|-%-------|-%-------|-%-------|-%-------|
G#|---------|---------|--------|---------|---------|---------|---------|---------|---------|
D#|---------|---------|--------|---------|---------|---------|---------|---------|---------|

D#|---------|---------|---------|---------|---------|---------|--------|---------|---------|
A#|---------|---------|---------|---------|---------|---------|--------|---------|---------|
F#|-%-------|-%-------|-%-------|-%-------|-%-------|-%-------|-%------|-%-------|-%-------|
C#|-%-------|-%-------|-%-------|-%-------|-%-------|-%-------|-%------|-%-------|-%-------|
G#|---------|---------|---------|---------|---------|---------|--------|---------|---------|
D#|---------|---------|---------|---------|---------|---------|--------|---------|---------|

D#|---------|---------|---------|---------|---------|---------|---------|---------|
A#|---------|---------|---------|---------|---------|---------|---------|---------|
F#|-%-------|-%-------|-%-------|-%-------|-%-------|-%-------|-%-------|-%-------|
C#|-%-------|-%-------|-%-------|-%-------|-%-------|-%-------|-%-------|-%-------|
G#|---------|---------|---------|---------|---------|---------|---------|---------|
D#|---------|---------|---------|---------|---------|---------|---------|---------|

D#|---------|---------|---------|---------|---------|---------|---------|---------|
A#|---------|---------|---------|---------|---------|---------|---------|---------|
F#|-%-------|-%-------|-%-------|-%-------|-%-------|-%-------|-%-------|-%-------|
C#|-%-------|-%-------|-%-------|-%-------|-%-------|-%-------|-%-------|-%-------|
G#|---------|---------|---------|---------|---------|---------|---------|---------|
D#|---------|---------|---------|---------|---------|---------|---------|---------|

D#|---------|---------|---------|---------|---------|---------|---------|---------|
A#|---------|---------|---------|---------|---------|---------|---------|---------|
F#|-%-------|-%-------|-%-------|-%-------|-%-------|-%-------|-%-------|-%-------|
C#|-%-------|-%-------|-%-------|-%-------|-%-------|-%-------|-%-------|-%-------|
G#|---------|---------|---------|---------|---------|---------|---------|---------|
D#|---------|---------|---------|---------|---------|---------|---------|---------|

D#|---------|---------|---------|---------|---------|---------|---------|---------|
A#|---------|---------|---------|---------|---------|---------|---------|---------|
F#|-%-------|-%-------|-%-------|-%-------|-%-------|-%-------|-%-------|-%-------|
C#|-%-------|-%-------|-%-------|-%-------|-%-------|-%-------|-%-------|-%-------|
G#|---------|---------|---------|---------|---------|---------|---------|---------|
D#|---------|---------|---------|---------|---------|---------|---------|---------|

D#|---------|---------|---------|---------|---------|---------|---------|---------|
A#|---------|---------|---------|---------|---------|---------|---------|---------|
F#|-%-------|-%-------|-%-------|-%-------|-%-------|-%-------|-%-------|-%-------|
C#|-%-------|-%-------|-%-------|-%-------|-%-------|-%-------|-%-------|-%-------|
G#|---------|---------|---------|---------|---------|---------|---------|---------|
D#|---------|---------|---------|---------|---------|---------|---------|---------|

D#|---------|---------|---------|---------|---------|---------|---------|---------|
A#|---------|---------|---------|---------|---------|---------|---------|---------|
F#|-%-------|-%-------|-%-------|-%-------|-%-------|-%-------|-%-------|-%-------|
C#|-%-------|-%-------|-%-------|-%-------|-%-------|-%-------|-%-------|-%-------|
G#|---------|---------|---------|---------|---------|---------|---------|---------|
D#|---------|---------|---------|---------|---------|---------|---------|---------|

D#|---------|---------|---------|---------|---------|---------|---------|---------|
A#|---------|---------|---------|---------|---------|---------|---------|---------|
F#|-%-------|-%-------|-%-------|-%-------|-%-------|-%-------|-%-------|-%-------|
C#|-%-------|-%-------|-%-------|-%-------|-%-------|-%-------|-%-------|-%-------|
G#|---------|---------|---------|---------|---------|---------|---------|---------|
D#|---------|---------|---------|---------|---------|---------|---------|---------|

D#|---------|---------|---------|---------|---------|---------|---------|---------|
A#|---------|---------|---------|---------|---------|---------|---------|---------|
F#|-%-------|-%-------|-%-------|-%-------|-%-------|-%-------|-%-------|-%-------|
C#|-%-------|-%-------|-%-------|-%-------|-%-------|-%-------|-%-------|-%-------|
G#|---------|---------|---------|---------|---------|---------|---------|---------|
D#|---------|---------|---------|---------|---------|---------|---------|---------|

D#|---------|---------|---------|---------|---------|---------|---------|---------|
A#|---------|---------|---------|---------|---------|---------|---------|---------|
F#|-%-------|-%-------|-%-------|-%-------|-%-------|-%-------|-%-------|-%-------|
C#|-%-------|-%-------|-%-------|-%-------|-%-------|-%-------|-%-------|-%-------|
G#|---------|---------|---------|---------|---------|---------|---------|---------|
D#|---------|---------|---------|---------|---------|---------|---------|---------|

D#|---------|---------|
A#|---------|---------|
F#|-%-------|-%-------|
C#|-%-------|-%-------|
G#|---------|---------|
D#|---------|---------|
Guns'N Roses - Paradise City
Guns'N Roses - Paradise City.gp3