Guns N' Roses - Paradise City (3)

Guns N Roses



Title: Paradise City
Album: 
Artist: Guns N' Roses
Author: 

Track 1: Guitar 1
D#|---------|---------|---------|---------|---------|---------|---------|---------|
A#|---------|---------|---------|---------|---------|---------|---------|---------|
F#|-%-------|-%-------|-%-------|-%-------|-%-------|-%-------|-%-------|-%-------|
C#|-%-------|-%-------|-%-------|-%-------|-%-------|-%-------|-%-------|-%-------|
G#|---------|---------|---------|---------|---------|---------|---------|---------|
D#|---------|---------|---------|---------|---------|---------|---------|---------|

D#|---------|---------|---------|---------|---------|---------|---------|---------|
A#|---------|---------|---------|---------|---------|---------|---------|-0-------|
F#|-%-------|-%-------|-%-------|-%-------|-%-------|-%-------|-%-------|-0-------|
C#|-%-------|-%-------|-%-------|-%-------|-%-------|-%-------|-%-------|-0-------|
G#|---------|---------|---------|---------|---------|---------|---------|-2-------|
D#|---------|---------|---------|---------|---------|---------|---------|-3-------|

D#|-----------------------|-----------------------|-------------------------------|
A#|-----------------------|-----------------------|-------------------------------|
F#|---------------5---5---|-5------5------10--10--|-10-----5---5---5--------------|
C#|-5------5------5---5---|-5------5------10--10--|-10-----5---5---5------5---5---|
G#|-5------5------3---3---|-3------3------8---8---|-8------3---3---3------5---5---|
D#|-3------3--------------|-----------------------|-----------------------3---3---|

D#|-----------------------|-----------------------|-----------------------|-------------------------------|
A#|-----------------------|-----------------------|-----------------------|-------------------------------|
F#|-----------------------|---------------5---5---|-5------5------10--10--|-10-----5---5---5--------------|
C#|-5------5------5---5---|-5------5------5---5---|-5------5------10--10--|-10-----5---5---5------5---5---|
G#|-5------5------5---5---|-5------5------3---3---|-3------3------8---8---|-8------3---3---3------5---5---|
D#|-3------3------3---3---|-3------3--------------|-----------------------|-----------------------3---3---|

D#|-----------------------|--------------------------------------------------------|
A#|-----------------------|------------------------------15------------------------|
F#|-----------------------|---------12--12--12---------------14----14--14--12------|
C#|-5------5------5---5---|-12--14---------------14--12------------------------14--|
G#|-5------5------5---5---|--------------------------------------------------------|
D#|-3------3------3---3---|--------------------------------------------------------|

D#|--------------------------------------------------------|-----------------------------------|
A#|------------------------------15------------------------|-13----13----13--------------------|
F#|---------12--12--12---------------14----14--14--12------|-------------------14--14--12------|
C#|-12--14---------------14--12------------------------14--|-------------------------------14--|
G#|--------------------------------------------------------|-----------------------------------|
D#|--------------------------------------------------------|-----------------------------------|

D#|---------|--------------------------------------------------------|--------------------------------------------------------|
A#|---------|------------------------------15------------------------|------------------------------15------------------------|
F#|-14------|---------12--12--12---------------14----14--14--12------|---------12--12--12---------------14----14--14--12------|
C#|---------|-12--14---------------14--12------------------------14--|-12--14---------------14--12------------------------14--|
G#|---------|--------------------------------------------------------|--------------------------------------------------------|
D#|---------|--------------------------------------------------------|--------------------------------------------------------|

D#|-------------15---------------------|-------------------------------------------------|
A#|-13----13--------13---13----12--12--|-12--12--12--12--12--12--12--12--12--------------|
F#|------------------------------------|---------------------------------------X---------|
C#|------------------------------------|---------------------------------------X----X----|
G#|------------------------------------|--------------------------------------------X----|
D#|------------------------------------|-------------------------------------------------|

D#|--------------------------------------------------------|--------------------------------------------------------|
A#|--------------------------------------------------------|--------------------------------------------------------|
F#|--------------------------------------------------------|--------------------------------------------------------|
C#|--------------------------------------------------------|--------------------------------------------------------|
G#|-----------------------------------------------1----1---|-----------------------------------------------1----1---|
D#|-3----1---2---3----1---2---3---1---3---1---3------------|-3----1---2---3----1---2---3---1---3---1---3------------|

D#|--------------------------------------------------------|--------------------------------------------------|
A#|--------------------------------------------------------|----------------------------------------X---------|
F#|--------------------------------------------------------|----------------------------------------X---------|
C#|--------------------------------------------------------|----------------------------------------X---------|
G#|-----------------------------------------------1----1---|------------------0---1---2---3-----3-------1-----|
D#|-3----1---2---3----1---2---3---1---3---1---3------------|-3----1---2---3-----------------------------------|

D#|--------------------------------------------------------|--------------------------------------------------------|
A#|--------------------------------------------------------|--------------------------------------------------------|
F#|----------------------------------------------------3---|----------------------------------------------5---3-----|
C#|----------------------------------------------------3---|----------------------------------------------5---3-----|
G#|--------------------------------------------------------|----------------------------------------------3---1-----|
D#|-3----1---2---3---3---1---2---3---1---3---1---3---------|-3----1---2---3---3---1---2---3---1---3---1-------------|

D#|--------------------------------------------------------|---------------------|---------|
A#|--------------------------------------------------------|---------------3-----|---------|
F#|----------------------------------------------------3---|---------------3-----|-5-------|
C#|----------------------------------------------------3---|---------------3-----|-5-------|
G#|--------------------------------------------------------|---------------------|-3-------|
D#|-3----1---2---3---3---1---2---3---1---3---1---3---------|-3-----1---3---------|---------|

D#|-------------------------------------------------|--------------------------------------------------------|
A#|-------------------------------------------------|--------------------------------------------------------|
F#|---------------------------------------X----X----|--------------------------------------------------------|
C#|---------------------------------------X----X----|--------------------------------------------------------|
G#|-3---3---3---1---3---1-----------------X---------|-----------------------------------------------1----1---|
D#|-------------------------1---3---3---------------|-3----1---2---3----1---2---3---1---3---1---3------------|

D#|--------------------------------------------------------|--------------------------------------------------------|
A#|--------------------------------------------------------|--------------------------------------------------------|
F#|--------------------------------------------------------|--------------------------------------------------------|
C#|--------------------------------------------------------|--------------------------------------------------------|
G#|-----------------------------------------------1----1---|-----------------------------------------------1----1---|
D#|-3----1---2---3----1---2---3---1---3---1---3------------|-3----1---2---3----1---2---3---1---3---1---3------------|

D#|--------------------------------------------------|--------------------------------------------------------|
A#|----------------------------------------X---------|--------------------------------------------------------|
F#|----------------------------------------X---------|----------------------------------------------------3---|
C#|----------------------------------------X---------|----------------------------------------------------3---|
G#|------------------0---1---2---3-----3-------1-----|--------------------------------------------------------|
D#|-3----1---2---3-----------------------------------|-3----3---1---3---3---1---2---3---1---3---1---3---------|

D#|--------------------------------------------------------|--------------------------------------------------------|
A#|--------------------------------------------------------|--------------------------------------------------------|
F#|----------------------------------------------5---3-----|--------------------------------------------------3-----|
C#|----------------------------------------------5---3-----|--------------------------------------------------3-----|
G#|----------------------------------------------3---1-----|--------------------------------------------------------|
D#|-3----3---1---3---3---1---2---3---1---3---1-------------|-3----1---2---3---3---1---2---3---1---3---1---3---------|

D#|------------------------|---------|-------------------------------------------------|
A#|------------------3-----|---------|-------------------------------------------------|
F#|------------------3-----|-5-------|---------------------------------------X----X----|
C#|------------------3-----|-5-------|---------------------------------------X----X----|
G#|------------------------|-3-------|-3---3---3---1---3---1-----------------X---------|
D#|-3----1---2---3---------|---------|-------------------------1---3---3---------------|

D#|-----------------------|-----------------------|-------------------------------|
A#|-0------0--------------|-----------------------|-------------------------------|
F#|-0------0------X---X---|-5------5------X---X---|----------------5------X---X---|
C#|-0------0------X---X---|-5------5------X---X---|-3------X---X---5------X---X---|
G#|---------------X---X---|-3------3------X---X---|-3------X---X---3------X---X---|
D#|-3------3--------------|-----------------------|-1------X---X------------------|

D#|-----------------------|-----------------------|-----------------------|-------------------------------|
A#|-0------0--------------|-0------0--------------|-----------------------|-------------------------------|
F#|-0------0------X---X---|-0------0------X---X---|-5------5------X---X---|----------------5------X---X---|
C#|-0------0------X---X---|-0------0------X---X---|-5------5------X---X---|-3------X---X---5------X---X---|
G#|---------------X---X---|---------------X---X---|-3------3------X---X---|-3------X---X---3------X---X---|
D#|-3------3--------------|-3------3--------------|-----------------------|-1------X---X------------------|

D#|---------------|-----------------------------------------------------|-----------------------------------------------------|
A#|---------------|-----------------------------------------------3-----|-------------------------------------------3----3----|
F#|---------------|-4----2---3---4----2---3---4---2---4---2---4---------|-4----2---3---4----2---3---4---2---4---2-------------|
C#|-5-------------|-----------------------------------------------------|-----------------------------------------------------|
G#|-5-------------|-----------------------------------------------------|-----------------------------------------------------|
D#|-3-------13----|-----------------------------------------------------|-----------------------------------------------------|

D#|-----------------------------------------------------|------------------------|-------------------------|
A#|-----------------------------------------------3-----|------------------------|-------------------5-----|
F#|-4----2---3---4----2---3---4---2---4---2---4---------|-4----2---3---4----2----|-------------5-----------|
C#|-----------------------------------------------------|------------------------|-2-----5-----------------|
G#|-----------------------------------------------------|------------------------|-------------------------|
D#|-----------------------------------------------------|------------------------|-------------------------|

D#|---------------------------------------------|-----------------------|-----------------------|
A#|-5---5---5---3---5---3-----------------------|-0------0--------------|-----------------------|
F#|-------------------------3---4---4-----------|-0------0------X---X---|-5------5------X---X---|
C#|---------------------------------------------|-0------0------X---X---|-5------5------X---X---|
G#|---------------------------------------20----|---------------X---X---|-3------3------X---X---|
D#|---------------------------------------------|-3------3--------------|-----------------------|

D#|-------------------------------|-----------------------|-----------------------|
A#|-------------------------------|-0------0--------------|-0------0--------------|
F#|----------------5------X---X---|-0------0------X---X---|-0------0------X---X---|
C#|-3------X---X---5------X---X---|-0------0------X---X---|-0------0------X---X---|
G#|-3------X---X---3------X---X---|---------------X---X---|---------------X---X---|
D#|-1------X---X------------------|-3------3--------------|-3------3--------------|

D#|-----------------------|-------------------------------|----------------------------|
A#|-----------------------|-------------------------------|----------------------------|
F#|-5------5------X---X---|----------------5------X---X---|----------------------------|
C#|-5------5------X---X---|-3------X---X---5------X---X---|----------------------------|
G#|-3------3------X---X---|-3------X---X---3------X---X---|----------------------------|
D#|-----------------------|-1------X---X------------------|-3---1-----1------13---0----|

D#|-----------------------------------------------------|-----------------------------------------------------|
A#|-----------------------------------------------------|-----------------------------------------------------|
F#|-------------------------------------------------3---|-------------------------------------------------3---|
C#|-5----3---4---5----3---4---5---3---5---3---5-----3---|-5----3---4---5----3---4---5---3---5---3---5-----3---|
G#|-5----3---4---5----3---4---5---3---5---3---5---------|-5----3---4---5----3---4---5---3---5---3---5---------|
D#|-----------------------------------------------------|-----------------------------------------------------|

D#|-----------------------------------------------------|-----------------------------------------------|
A#|-----------------------------------------------------|-----------------------------------------------|
F#|-------------------------------------------------3---|-------------------------------------5----3----|
C#|-5----3---4---5----3---4---5---3---5---3---5-----3---|-5----3---4---5----3---4---5----3----5----3----|
G#|-5----3---4---5----3---4---5---3---5---3---5---------|-5----3---4---5----3---4---5----3--------------|
D#|-----------------------------------------------------|-----------------------------------------------|

D#|--------------------------------------------------------|--------------------------------------------------------|
A#|--------------------------------------------------------|--------------------------------------------------------|
F#|--------------------------------------------------5-----|--------------------------------------------------5-----|
C#|-7----5---6---7---7---5---6---7---5---7---5---7---5-----|-7----5---6---7---7---5---6---7---5---7---5---7---5-----|
G#|-7----5---6---7---7---5---6---7---5---7---5---7---------|-7----5---6---7---7---5---6---7---5---7---5---7---------|
D#|--------------------------------------------------------|--------------------------------------------------------|

D#|-----------------------------------------------------|------------------------|---------------------------------|
A#|-----------------------------------------------------|------------------------|-------------5---------5---------|
F#|-------------------------------------------5----3----|------------------------|-5------5---------5----5---------|
C#|-5----3---4---5----3---4---5---3---5---3---5----3----|-5------------5----3----|-5---------------------5---------|
G#|-5----3---4---5----3---4---5---3---5---3-------------|-5----3---4---5---------|-3--------------------------4----|
D#|-----------------------------------------------------|------------------------|---------------------------------|

D#|---------|---------|---------|---------|---------|---------|---------|---------|
A#|---------|---------|---------|---------|---------|---------|---------|---------|
F#|-%-------|-%-------|-%-------|-%-------|-%-------|-%-------|-%-------|-%-------|
C#|-%-------|-%-------|-%-------|-%-------|-%-------|-%-------|-%-------|-%-------|
G#|---------|---------|---------|---------|---------|---------|---------|---------|
D#|---------|---------|---------|---------|---------|---------|---------|---------|

D#|-----------------------------------------------------|-----------------------------------------------------|
A#|-----------------------------------------------3-----|-------------------------------------------3----3----|
F#|-4----2---3---4----2---3---4---2---4---2---4---------|-4----2---3---4----2---3---4---2---4---2-------------|
C#|-----------------------------------------------------|-----------------------------------------------------|
G#|-----------------------------------------------------|-----------------------------------------------------|
D#|-----------------------------------------------------|-----------------------------------------------------|

D#|-----------------------------------------------------|------------------------|-------------------------|
A#|-----------------------------------------------3-----|------------------------|-------------------5-----|
F#|-4----2---3---4----2---3---4---2---4---2---4---------|-4----2---3---4----2----|-------------5-----------|
C#|-----------------------------------------------------|------------------------|-2-----5-----------------|
G#|-----------------------------------------------------|------------------------|-------------------------|
D#|-----------------------------------------------------|------------------------|-------------------------|

D#|---------------------------------------------|-----------------------|-----------------------|
A#|-5---5---5---3---5---3-----------------------|-0------0--------------|-----------------------|
F#|-------------------------3---4---4-----------|-0------0------X---X---|-5------5------X---X---|
C#|---------------------------------------------|-0------0------X---X---|-5------5------X---X---|
G#|---------------------------------------20----|---------------X---X---|-3------3------X---X---|
D#|---------------------------------------------|-3------3--------------|-----------------------|

D#|-------------------------------|-----------------------|-----------------------|
A#|-------------------------------|-0------0--------------|-0------0--------------|
F#|----------------5------X---X---|-0------0------X---X---|-0------0------X---X---|
C#|-3------X---X---5------X---X---|-0------0------X---X---|-0------0------X---X---|
G#|-3------X---X---3------X---X---|---------------X---X---|---------------X---X---|
D#|-1------X---X------------------|-3------3--------------|-3------3--------------|

D#|-----------------------|-------------------------------|-------------------------------|
A#|-----------------------|-------------------------------|-0------0----------------------|
F#|-5------5------X---X---|----------------5------X---X---|-0------0-----X----------------|
C#|-5------5------X---X---|-3------X---X---5------X---X---|-0------0-----X----------------|
G#|-3------3------X---X---|-3------X---X---3------X---X---|-------------------------------|
D#|-----------------------|-1------X---X------------------|-3------3---------0----2---3---|

D#|--------------------------------------------------------|--------------------------------------------------------|
A#|------------------------------15------------------------|------------------------------15------------------------|
F#|---------12--12--12---------------14----14--14--12------|---------12--12--12---------------14----14--14--12------|
C#|-12--14---------------14--12------------------------14--|-12--14---------------14--12------------------------14--|
G#|--------------------------------------------------------|--------------------------------------------------------|
D#|--------------------------------------------------------|--------------------------------------------------------|

D#|-----------------------------------|-----------------------------------------------------|
A#|-13----13----13--------------------|------15-----------15---15-------15------------------|
F#|-------------------14--14--12------|-14-------14--14---14-------14-------14--14--12------|
C#|-------------------------------14--|-------------------------------------------------14--|
G#|-----------------------------------|-----------------------------------------------------|
D#|-----------------------------------|-----------------------------------------------------|

D#|--------------------------------------------------------|---------------------------15-------15------------------|
A#|------------------------------15------------------------|---------13---13---------------15-------15--15--13------|
F#|---------12--12--12---------------14----14--14--12------|-12--14------------14--12---------------------------15--|
C#|-12--14---------------14--12------------------------14--|--------------------------------------------------------|
G#|--------------------------------------------------------|--------------------------------------------------------|
D#|--------------------------------------------------------|--------------------------------------------------------|

D#|-----13----13-----------|---------------|---------|---------------------------------|
A#|-----------------13-----|-12-----12-----|-12------|-3-------------------------------|
F#|-14--------------12-----|---------------|---------|-2----2----2----0----X-----X-----|
C#|------------------------|---------------|---------|---------------------X-----X-----|
G#|------------------------|---------------|---------|---------------------X-----X-----|
D#|------------------------|---------------|---------|---------------------------------|

D#|---------------|---------|---------------------------------|---------------------------------|
A#|-12-----12-----|-12------|-3-------------------------------|---------------------------------|
F#|---------------|---------|-2----2----2----0----X-----X-----|---------------------------------|
C#|---------------|---------|---------------------X-----X-----|-5-----3----4----5-----3----4----|
G#|---------------|---------|---------------------X-----X-----|---------------------------------|
D#|---------------|---------|---------------------------------|---------------------------------|

D#|-------------------------------------|---------------------------------|-------------------------------------|
A#|-------------------------------------|---------------------------------|-------------------------------------|
F#|--------------------------3----3-----|-5-----3----4----5-----3----4----|-5----3----5----3----5----3-----3----|
C#|-5----3----5----3----5---------------|---------------------------------|-------------------------------------|
G#|-------------------------------------|---------------------------------|-------------------------------------|
D#|-------------------------------------|---------------------------------|-------------------------------------|

D#|-------------------------------------|-----------------------------------------|
A#|-------------------------------------|-----------------------------------------|
F#|--------------------------------4----|-5----5----3----4----5----3----5----3----|
C#|-3-----1----2----3----0----3---------|-----------------------------------------|
G#|-------------------------------------|-----------------------------------------|
D#|-------------------------------------|-----------------------------------------|

D#|-------------------------------------|-----------------------------------------|
A#|-------------------------------------|---------------------3-------------------|
F#|-3----3--------------------3---------|-5----3--------------3----3--------------|
C#|-----------5----3----5----------5----|-----------5----3--------------5----3----|
G#|-------------------------------------|-----------------------------------------|
D#|-------------------------------------|-----------------------------------------|

D#|---------------------------------|-------------------------------------|---------------------------------|
A#|---------------------------------|-------------------------------------|---------------------------------|
F#|---------------------------------|--------------------------3-----3----|-5-----3----4----5-----3----4----|
C#|-5-----3----4----5-----3----4----|-5----3----5----3----5---------------|---------------------------------|
G#|---------------------------------|-------------------------------------|---------------------------------|
D#|---------------------------------|-------------------------------------|---------------------------------|

D#|---------------------------------|-------------------------------------|-------------------------------------|
A#|---------------------------------|-------------------------------------|-------------------------------------|
F#|-5----3----5----3----5-----3-----|--------------------------------4----|-5-----3----4----5----3----5----3----|
C#|---------------------------------|-3-----1----2----3----1----3---------|-------------------------------------|
G#|---------------------------------|-------------------------------------|-------------------------------------|
D#|---------------------------------|-------------------------------------|-------------------------------------|

D#|-------------------------------------|-----------------------------------------|
A#|-------------------------------------|---------------------3-------------------|
F#|-3----3--------------------3---------|-5----3--------------3----3--------------|
C#|-----------5----3----5----------5----|-----------5----3--------------5----3----|
G#|-------------------------------------|-----------------------------------------|
D#|-------------------------------------|-----------------------------------------|

D#|---------------------------------|-------------------------------------|-----------------------------------------|
A#|---------------------------------|-----------------3----3--------------|-5----5----5----5----5----5----5----3----|
F#|-----------------------%---------|-----------3-----3----3----3----4----|-5----5----5----3----5----5----5----3----|
C#|-5------X----3----5----%---------|-5----3----3-------------------------|-----------------------------------------|
G#|----------------------------5----|-------------------------------------|-----------------------------------------|
D#|---------------------------------|-------------------------------------|-----------------------------------------|

D#|-------------------------------------|-------------------|-------------------|-------------------------------------|
A#|-5----3----5----3----5-----X----X----|-6-------X----5----|-5-------X---------|---------------------------3---------|
F#|-5----3----5----3----5-----X----X----|-5-------X----5----|-5-------X----3----|-3----3--------------------3---------|
C#|-------------------------------------|-------------------|-------------------|-----------5----3----5----------5----|
G#|-------------------------------------|-------------------|-------------------|-------------------------------------|
D#|-------------------------------------|-------------------|-------------------|-------------------------------------|

D#|-----------------------------------------|----------------------------|--------------------------|
A#|---------------------3----3--------------|----------------15---15-----|-15----15----15----15-----|
F#|-5----3--------------4----4----%---------|------12---%----------------|--------------------------|
C#|-----------5----3--------------%----13---|-14--------%----------------|--------------------------|
G#|-----------------------------------------|----------------------------|--------------------------|
D#|-----------------------------------------|----------------------------|--------------------------|

D#|--------------------------------------|---------------------------------------------------------|
A#|-15----15----14---13--------13---15---|-13--15--13--11--13---11--13--11--10--11--10---11---10---|
F#|-----------------------15-------------|---------------------------------------------------------|
C#|--------------------------------------|---------------------------------------------------------|
G#|--------------------------------------|---------------------------------------------------------|
D#|--------------------------------------|---------------------------------------------------------|

D#|---------------------15------------15----------|------15------------------------------------------|
A#|------10--------15--------18---18------18--15--|-18--------18--15--18---18---18--15--18---18--15--|
F#|-12--------16----------------------------------|--------------------------------------------------|
C#|-----------------------------------------------|--------------------------------------------------|
G#|-----------------------------------------------|--------------------------------------------------|
D#|-----------------------------------------------|--------------------------------------------------|

D#|------15---------------------15-----------15---|---------18-----18-----|-6------------3--------------3--------------3--------------|
A#|----------18--18----18--18--------18--15-------|-18--15----------------|------6---3--------6----3---------6----3---------6----3----|
F#|-17--------------------------------------------|-----------------------|-----------------------------------------------------------|
C#|-----------------------------------------------|-----------------------|-----------------------------------------------------------|
G#|-----------------------------------------------|-----------------------|-----------------------------------------------------------|
D#|-----------------------------------------------|-----------------------|-----------------------------------------------------------|

D#|-3--------------3--------------3--------------3--------------|-3--------------3--------------3--------------3--------------|
A#|------6----3---------6----3---------6----3---------6----3----|------6----3---------6----3---------6----3---------6----3----|
F#|-------------------------------------------------------------|-------------------------------------------------------------|
C#|-------------------------------------------------------------|-------------------------------------------------------------|
G#|-------------------------------------------------------------|-------------------------------------------------------------|
D#|-------------------------------------------------------------|-------------------------------------------------------------|

D#|-3--------------3--------------3--------------3--------------|-3----6----5----3----6---3---3--------3-----------|
A#|------6----3---------6----3---------6----3---------6----3----|----------------------------------6-------5---6---|
F#|-------------------------------------------------------------|--------------------------------------------------|
C#|-------------------------------------------------------------|--------------------------------------------------|
G#|-------------------------------------------------------------|--------------------------------------------------|
D#|-------------------------------------------------------------|--------------------------------------------------|

D#|-3-----------------------------------------------|-------------------------------------|
A#|------6----5----3--------------3-----------------|-------------------------------------|
F#|---------------------7----5---------5----6---5---|-3----5----3-------------------------|
C#|-------------------------------------------------|----------------5----7----5----5-----|
G#|-------------------------------------------------|-------------------------------------|
D#|-------------------------------------------------|-------------------------------------|

D#|---------------------------------------------------|-------------------------------------|
A#|---------------------------------------------------|-------------------------------------|
F#|---------------------------------------------------|-------------------------------------|
C#|-3----0--------------------------------------------|-------------------------------------|
G#|-----------0----3----0-----------------------------|---------------------------1---------|
D#|--------------------------5----6----3----X----X----|-1-----3----3----3----3---------3----|

D#|-------------------------------------|-----------------------------------------|
A#|-------------------------------------|-----------------------------------------|
F#|-------------------------------------|-----------------------------------------|
C#|-------------------------------------|-----------3---------5----3--------------|
G#|-3----1----1-----3----1--------------|-3----5---------5--------------5----3----|
D#|---------------------------3----1----|-----------------------------------------|

D#|-------------------------------------|-------------------------------------|---------------------------------|
A#|----------------------5----3---------|-3--------------------5----3---------|-3-------------------------------|
F#|-3--------------------5----3---------|-3--------------------5----3---------|-3----3----------------3---------|
C#|-------5----5----5--------------5----|-------5----5----5--------------5----|------------5----5----------5----|
G#|-------------------------------------|-------------------------------------|---------------------------------|
D#|-------------------------------------|-------------------------------------|---------------------------------|

D#|-----------------------------------------|------3------------|------3------------------------------|
A#|-5----3------------------------3---------|-3---------5-------|-----------5----3----5----5-----5----|
F#|-5----3-----------------------------5----|-----------5-------|-5-------------------5----5-----5----|
C#|-----------4----3------------------------|-------------------|-------------------------------------|
G#|---------------------5----3--------------|-------------------|-------------------------------------|
D#|-----------------------------------------|-------------------|-------------------------------------|

D#|-3--------------------------|------3-------------------3--------------|-3----6--------------6--------------8----8----|
A#|------5----4----4----4------|-5----3----5-------------------6----6----|-----------6----8---------8----6--------------|
F#|-----------4----4----4------|-5---------5----5----5-------------------|----------------------------------------------|
C#|----------------------------|-----------------------------------------|----------------------------------------------|
G#|----------------------------|-----------------------------------------|----------------------------------------------|
D#|----------------------------|-----------------------------------------|----------------------------------------------|

D#|-6---------8----6--------------10----10---|-9----8---------8----9----13-------------|
A#|------8--------------8----6---------------|-----------10------------------10---10---|
F#|------------------------------------------|-----------------------------------------|
C#|------------------------------------------|-----------------------------------------|
G#|------------------------------------------|-----------------------------------------|
D#|------------------------------------------|-----------------------------------------|

D#|-------------------------------------|----------------------------10---|---------------------------------|
A#|-8---------10--------8-----10---8----|-8-----10---8----8----10---------|-10--------8-----10--------8-----|
F#|------9---------9--------------------|---------------------------------|------9---------------9----------|
C#|-------------------------------------|---------------------------------|---------------------------------|
G#|-------------------------------------|---------------------------------|---------------------------------|
D#|-------------------------------------|---------------------------------|---------------------------------|

D#|-------------------------------------|-8----10--------------------------------------|
A#|-10--------8-----10--------8----10---|-8----10---10---10---11---10---8----10--------|
F#|------9---------------9--------------|-----------------------------------------10---|
C#|-------------------------------------|----------------------------------------------|
G#|-------------------------------------|----------------------------------------------|
D#|-------------------------------------|----------------------------------------------|

D#|---------------------------------------------------------|-10---12--------13---15---12---13---15---12---18---13--15--|
A#|-8---------10--11--10------10---11---13---10---11---13---|-----------13----------------------------------------------|
F#|------12---------------12--------------------------------|-----------------------------------------------------------|
C#|---------------------------------------------------------|-----------------------------------------------------------|
G#|---------------------------------------------------------|-----------------------------------------------------------|
D#|---------------------------------------------------------|-----------------------------------------------------------|

D#|-17---14--15--19---15--18--15---15--------15------|-------------------------------------------------------|
A#|-------------------------------------18-------18--|-15---18---15---15--18--15----------------15-----------|
F#|--------------------------------------------------|----------------------------18--18---18-------18---17--|
C#|--------------------------------------------------|-------------------------------------------------------|
G#|--------------------------------------------------|-------------------------------------------------------|
D#|--------------------------------------------------|-------------------------------------------------------|

D#|-----18----------------------|-------------------------------12--15--13--12-------13--12--|
A#|-----17----17----17----14----|----------------12---13---15-------------------15-----------|
F#|-15--------------------------|-12---14---15-----------------------------------------------|
C#|-----------------------------|------------------------------------------------------------|
G#|-----------------------------|------------------------------------------------------------|
D#|-----------------------------|------------------------------------------------------------|

D#|---------12--15--------------------------------------------10--|--------------------------------------------------------|
A#|-15--13----------13--12--15--13--12--11---13--12--10---12------|-10---8----11--8---6---10--8---6---5----8---6---5---3---|
F#|---------------------------------------------------------------|--------------------------------------------------------|
C#|---------------------------------------------------------------|--------------------------------------------------------|
G#|---------------------------------------------------------------|--------------------------------------------------------|
D#|---------------------------------------------------------------|--------------------------------------------------------|

D#|--------------------------------------------------------|--------------------------------------------|
A#|-6---5---3-------5---3---1------------------------------|--------------------------------------------|
F#|-------------5----------------5-----3----6----5----3----|-5----3------------5----5---------5---------|
C#|--------------------------------------------------------|-----------------------------8--------------|
G#|--------------------------------------------------------|-----------6---7-----------------------6----|
D#|--------------------------------------------------------|--------------------------------------------|

D#|--------------------------------------------------------------|---------------------------------------------------------------|
A#|--------------------------------------------------------------|--------------------------------15---16---17---------------15--|
F#|------------------------------------------------------15--16--|-17--------------15---16---17------------------15--16--17------|
C#|-------------------------------15---16---17---15--17----------|-----15--16--17------------------------------------------------|
G#|-15---16---17---15---16---17----------------------------------|---------------------------------------------------------------|
D#|--------------------------------------------------------------|---------------------------------------------------------------|

D#|------15----------------|--------------------------------------------------------|
A#|-18--------20-----------|--------------------------------------------------------|
F#|------------------------|--------------------------------------------------------|
C#|------------------------|----------------3----5----3----3----0----3----4----5----|
G#|------------------16----|-2----3----5--------------------------------------------|
D#|------------------------|--------------------------------------------------------|

D#|------------------------------------------------------|---------------------------------------------------------|
A#|------------------------------------------------------|---------------------------------------------------------|
F#|------------------------------------------------------|---------------------------------------------------------|
C#|-5----5----3----5----5----3----5----5---4---3----3----|-3----4----5----3----3----4----5----4---3---5----4---3---|
G#|------------------------------------------------------|---------------------------------------------------------|
D#|------------------------------------------------------|---------------------------------------------------------|

D#|----------------------------------------------------|------------------------------------|
A#|----------------------------------------------------|------------------------------------|
F#|----------------------------------------------------|------------------------------3-----|
C#|-5----4---3---5----4---3---5----5----3----4----5----|-3----4---5---3----5----5-----------|
G#|----------------------------------------------------|------------------------------------|
D#|----------------------------------------------------|------------------------------------|

D#|------------------------------------|---------------|----------------------------|
A#|------------------------------------|---------------|----------------------------|
F#|-3-----3----5---5---3---------5-----|-5-------5-----|-5----3----5---------3------|
C#|-------------------------5----------|---------------|----------------5-----------|
G#|------------------------------------|---------------|----------------------------|
D#|------------------------------------|---------------|----------------------------|

D#|---------|----------------12-----------------------|---------------------------------|
A#|---------|-----------12--------15---12-------------|---------------------------------|
F#|-12------|-14---14-----------------------14---14---|-12--------14--------12---12-----|
C#|---------|-----------------------------------------|------14--------14---------------|
G#|---------|-----------------------------------------|---------------------------------|
D#|---------|-----------------------------------------|---------------------------------|

D#|----------------------------------------|----------------------------------------------|
A#|----------------------------------------|-----------12---15----------------------------|
F#|-14---12------12---12---12----14---12---|-14---14-------------14---14---12---12--------|
C#|----------14----------------------------|-----------------------------------------14---|
G#|----------------------------------------|----------------------------------------------|
D#|----------------------------------------|----------------------------------------------|

D#|-------------------------------------|-----------------------------------------|
A#|---------------------------12---15---|------13---15--------13---15--------13---|
F#|-14--------12---14---14--------------|-14-------------14-------------14--------|
C#|------14-----------------------------|-----------------------------------------|
G#|-------------------------------------|-----------------------------------------|
D#|-------------------------------------|-----------------------------------------|

D#|----------------------------------------------|-----------------------------------------------------|
A#|-15--------13---15--------13---15---13--------|-13---15--13-------12---15--13-------13--15--13------|
F#|------14-------------14------------------15---|--------------15----------------15---------------15--|
C#|----------------------------------------------|-----------------------------------------------------|
G#|----------------------------------------------|-----------------------------------------------------|
D#|----------------------------------------------|-----------------------------------------------------|

D#|--------------------------------------------------------|-----------------------------------------------------|
A#|-13---15---13--------13---15---13--------13---15---13---|-13---15--13-------13---15--13-------13--15--13------|
F#|----------------15------------------15------------------|--------------15----------------15---------------15--|
C#|--------------------------------------------------------|-----------------------------------------------------|
G#|--------------------------------------------------------|-----------------------------------------------------|
D#|--------------------------------------------------------|-----------------------------------------------------|

D#|-----------------------------------------------|----------------------------------------------------|
A#|-13---15---13------13--15--13--------13---15---|-15---13--15--13---12---13---12--13--12--------12---|
F#|---------------15---------------15-------------|------------------------------------------14--------|
C#|-----------------------------------------------|----------------------------------------------------|
G#|-----------------------------------------------|----------------------------------------------------|
D#|-----------------------------------------------|----------------------------------------------------|

D#|------------------------------------------------|-----------------------------------------------------|
A#|------------------------------------------------|-----------------------------------------------------|
F#|-14---14---12------14--12-----------------------|-----------------------------------------------------|
C#|---------------14----------14---12---14---12----|-12---12----11---10--11--10--8-------10------8-------|
G#|------------------------------------------------|---------------------------------10------10------10--|
D#|------------------------------------------------|-----------------------------------------------------|

D#|-----------------------------------------------------------|---------------|---------|
A#|-----------------------------------------------------------|---------------|---------|
F#|-----------------------------------------------------------|---------------|---------|
C#|-8---------------------------------------------------------|-8------8------|-8-------|
G#|-----10--8-------------------------------------------10----|---------------|---------|
D#|-------------10--9---8---8---8---6----8----6----7----------|---------------|---------|

D#|--------------------|
A#|--------------------|
F#|-------%-----%------|
C#|-------%-----%------|
G#|-10-----------------|
D#|--------------------|
Guns N' Roses - Paradise City (3)
Guns N' Roses - Paradise City (3).gp3