Guns N' Roses - Patience

Guns N' Roses - Patience

Guns N Roses



Title: Patience 
Album: 
Artist: Guns n' Roses
Author: 

Track 1: Guitar (IZZY)
D#|----------------0-----0--------------|-----------------------------------------|
A#|----------------1-----1----1----1----|-3----1----1----0----1----1----1----0----|
F#|-----------0---------------0----0----|-0---------0----0---------0----0---------|
C#|-2----2--------------------2----2----|-2---------2----2---------2----2---------|
G#|-3-------------------------3----3----|-3---------3----3---------3----3---------|
D#|-------------------------------------|-----------------------------------------|

D#|-------------------------------------|-----------------------------------------|
A#|----------------0--------------------|-1----0----------------------------------|
F#|-----------0----------0--------------|-----------0----2----0---------0----2----|
C#|------0--------------------0---------|--------------------------0----0----2----|
G#|-2------------------------------2----|-----------------------------------------|
D#|-------------------------------------|-----------------------------------------|

D#|-------------------------------------|-----------------------------------------|
A#|-------2------------------------0----|-3----2---------0----2----2--------------|
F#|------------2---------2--------------|-----------2----0----2----2----2----0----|
C#|-----------------2---------2---------|-----------2-------------------2----0----|
G#|-0-----------------------------------|-----------------------------------------|
D#|-------------------------------------|-----------------------------------------|

D#|-2---------2---------2----2--------------|-3----2----2----0-----2--------------|
A#|-3----3---------3--------------3----3----|-2---------3----3-----3--------------|
F#|-2----------------------------------2----|-3---------2----2-----2--------------|
C#|-0----------------------------------0----|-0---------0----0-----0--------------|
G#|-----------------------------------------|---------------------------0----2----|
D#|-----------------------------------------|-------------------------------------|

D#|----------------0-----0--------------|-----------------------------------------|
A#|----------------1-----1----1----1----|-3----1----1----0----1----1----1----0----|
F#|-----------0---------------0----0----|-0---------0----0---------0----0---------|
C#|-2----2--------------------2----2----|-2---------2----2---------2----2---------|
G#|-3-------------------------3----3----|-3---------3----3---------3----3---------|
D#|-------------------------------------|-----------------------------------------|

D#|-------------------------------------|-----------------------------------------|
A#|----------------0--------------------|-1----0----------------------------------|
F#|-----------0----------0--------------|-----------0----2----0---------0----2----|
C#|------0--------------------0---------|--------------------------0----0----2----|
G#|-2------------------------------2----|-----------------------------------------|
D#|-------------------------------------|-----------------------------------------|

D#|-------------------------------------|-----------------------------------------|
A#|-------2------------------------0----|-3----2---------0----2----2--------------|
F#|------------2---------2--------------|-----------2----0----2----2----2----0----|
C#|-----------------2---------2---------|-----------2-------------------2----0----|
G#|-0-----------------------------------|-----------------------------------------|
D#|-------------------------------------|-----------------------------------------|

D#|-2---------2---------2----2--------------|-3----2----2----0-----2--------------|
A#|-3----3---------3--------------3----3----|-2---------3----3-----3--------------|
F#|-2----------------------------------2----|-3---------2----2-----2--------------|
C#|-0----------------------------------0----|-0---------0----0-----0--------------|
G#|-----------------------------------------|---------------------------0----2----|
D#|-----------------------------------------|-------------------------------------|

D#|----------------0--------------------|---------------------------------|-2-----2---------0----2-----3----|
A#|----------------1-----1----1----0----|----------------------------0----|-3-----3----3----3----3-----3----|
F#|------0---------0-----0----0----0----|-0----------0---------------0----|-2-----2----2----2----2-----2----|
C#|-2---------2----------2----2----0----|-0-----0----------0---------0----|-0-----0----0----0----0-----0----|
G#|-3---------3----------3----3---------|-2---------------------2---------|---------------------------------|
D#|-------------------------------------|-3-------------------------------|---------------------------------|

D#|------2---------0---------2--------------|----------------0--------------------|
A#|-3----3----3----3----3----3----3----0----|----------------1-----1----1----0----|
F#|-2----2----2----2----2----2----2----0----|------0---------0-----0----0----0----|
C#|-0----0----0----0----0----0----0----0----|-2---------2----------2----2----0----|
G#|-----------------------------------------|-3---------3----------3----3---------|
D#|-----------------------------------------|-------------------------------------|

D#|---------------------------------|-2----2----2----2----2----2----2----2----|-2-------|
A#|----------------------------0----|-3----3----3----3----3----3----3----3----|-3-------|
F#|-0----------0---------------0----|-2----2----2----2----2----2----2----2----|-2-------|
C#|-0-----0----------0---------0----|-0----0----0----0----0----0----0----0----|-0-------|
G#|-2---------------------2---------|-----------------------------------------|---------|
D#|-3-------------------------------|-----------------------------------------|---------|

D#|-------------------------------------|-------------------------------------|------------------------|
A#|----------------1-----1----1----1----|-3----1---------0-----1--------------|------------------------|
F#|-----------0----------0----0----0----|-0-------------------------0---------|------------------%-----|
C#|------2---------------2----2----2----|-2-----------------------------------|------------------%-----|
G#|-3--------------------3----3----3----|-3---------3--------------------3----|-2------2----0----------|
D#|-------------------------------------|-------------------------------------|------------------------|

D#|-------------------------------------|-----------------5----5----5-----|-------------------------------------|
A#|-------------------------------------|------------2--------------------|-3----2---------0-----2--------------|
F#|-----------------0--------------0----|-------2-------------------------|-------------------------------------|
C#|-------0--------------0----2----0----|-2-------------------------------|-----------2-------------------------|
G#|-------2----0------------------------|-0-------------------------------|----------------------0----3----4----|
D#|-3-----------------------------------|---------------------------------|-------------------------------------|

D#|----------------------------|-------------------------------------|-------------------------------------|
A#|----------------------------|-------------------------------------|----------------1-----1----1----1----|
F#|--------%----%----%---------|------2-----2----4----2--------------|-----------0----------0----0----0----|
C#|-0------%----%----%----0----|-4-------------------------4---------|------2---------------2----2----2----|
G#|----------------------------|--------------------------------0----|-3--------------------3----3----3----|
D#|----------------------------|-------------------------------------|-------------------------------------|

D#|-------------------------------------|------------------------|-------------------------------------|
A#|-3----1---------0-----1--------------|------------------------|-------------------------------------|
F#|-0-------------------------0---------|------------------%-----|-----------------0--------------0----|
C#|-2-----------------------------------|------------------%-----|-------0--------------0----2----0----|
G#|-3---------3--------------------3----|-2------2----0----------|-------2----0------------------------|
D#|-------------------------------------|------------------------|-3-----------------------------------|

D#|-----------------5----5----5-----|-------------------------------------|------------0----2-------------------|
A#|------------2--------------------|-3----2---------0-----2--------------|-------3--------------3--------------|
F#|-------2-------------------------|-------------------------------------|---------------------------2---------|
C#|-2-------------------------------|-----------2-------------------------|-0------------------------------0----|
G#|-0-------------------------------|----------------------0----3----4----|-------------------------------------|
D#|---------------------------------|-------------------------------------|-------------------------------------|

D#|-3----2-----0----0----2--------------|---------|---------|---------|---------|---------|
A#|------------3----3----3---------0----|---------|---------|---------|---------|---------|
F#|-----------------2----2----2---------|-%-------|-%-------|-%-------|-%-------|-%-------|
C#|-------------------------------------|-%-------|-%-------|-%-------|-%-------|-%-------|
G#|-------------------------------------|---------|---------|---------|---------|---------|
D#|-------------------------------------|---------|---------|---------|---------|---------|

D#|---------|---------|---------|---------|---------|---------|---------|---------|
A#|---------|---------|---------|---------|---------|---------|---------|---------|
F#|-%-------|-%-------|-%-------|-%-------|-%-------|-%-------|-%-------|-%-------|
C#|-%-------|-%-------|-%-------|-%-------|-%-------|-%-------|-%-------|-%-------|
G#|---------|---------|---------|---------|---------|---------|---------|---------|
D#|---------|---------|---------|---------|---------|---------|---------|---------|

D#|---------|---------|---------|---------|---------|---------|---------|---------|
A#|---------|---------|---------|---------|---------|---------|---------|---------|
F#|-%-------|-%-------|-%-------|-%-------|-%-------|-%-------|-%-------|-%-------|
C#|-%-------|-%-------|-%-------|-%-------|-%-------|-%-------|-%-------|-%-------|
G#|---------|---------|---------|---------|---------|---------|---------|---------|
D#|---------|---------|---------|---------|---------|---------|---------|---------|

D#|---------|-------------------------------------|-------------------------------------|
A#|---------|----------------1-----1----1----1----|-3----1---------0-----1--------------|
F#|-%-------|-----------0----------0----0----0----|-0-------------------------0---------|
C#|-%-------|------2---------------2----2----2----|-2-----------------------------------|
G#|---------|-3--------------------3----3----3----|-3---------3--------------------3----|
D#|---------|-------------------------------------|-------------------------------------|

D#|------------------------|-------------------------------------|-----------------5----5----5-----|
A#|------------------------|-------------------------------------|------------2--------------------|
F#|------------------%-----|-----------------0--------------0----|-------2-------------------------|
C#|------------------%-----|-------0--------------0----2----0----|-2-------------------------------|
G#|-2------2----0----------|-------2----0------------------------|-0-------------------------------|
D#|------------------------|-3-----------------------------------|---------------------------------|

D#|-------------------------------------|----------------------------|-------------------------------------|
A#|-3----2---------0-----2--------------|----------------------------|-------------------------------------|
F#|-------------------------------------|--------%----%----%---------|------2-----2----4----2--------------|
C#|-----------2-------------------------|-0------%----%----%----0----|-4-------------------------4---------|
G#|----------------------0----3----4----|----------------------------|--------------------------------0----|
D#|-------------------------------------|----------------------------|-------------------------------------|

D#|-------------------------------------|-------------------------------------|------------------------|
A#|----------------1-----1----1----1----|-3----1---------0-----1--------------|------------------------|
F#|-----------0----------0----0----0----|-0-------------------------0---------|------------------%-----|
C#|------2---------------2----2----2----|-2-----------------------------------|------------------%-----|
G#|-3--------------------3----3----3----|-3---------3--------------------3----|-2------2----0----------|
D#|-------------------------------------|-------------------------------------|------------------------|

D#|-------------------------------------|-----------------5----5----5-----|-------------------------------------|
A#|-------------------------------------|------------2--------------------|-3----2---------0-----2--------------|
F#|-----------------0--------------0----|-------2-------------------------|-------------------------------------|
C#|-------0--------------0----2----0----|-2-------------------------------|-----------2-------------------------|
G#|-------2----0------------------------|-0-------------------------------|----------------------0----3----4----|
D#|-3-----------------------------------|---------------------------------|-------------------------------------|

D#|------------0----2-------------------|-3----2-----0----0----2--------------|---------|
A#|-------3--------------3--------------|------------3----3----3---------0----|---------|
F#|---------------------------2---------|-----------------2----2----2---------|-%-------|
C#|-0------------------------------0----|-------------------------------------|-%-------|
G#|-------------------------------------|-------------------------------------|---------|
D#|-------------------------------------|-------------------------------------|---------|

D#|---------|---------|---------|---------|---------|---------|---------|---------|
A#|---------|---------|---------|---------|---------|---------|---------|---------|
F#|-%-------|-%-------|-%-------|-%-------|-%-------|-%-------|-%-------|-%-------|
C#|-%-------|-%-------|-%-------|-%-------|-%-------|-%-------|-%-------|-%-------|
G#|---------|---------|---------|---------|---------|---------|---------|---------|
D#|---------|---------|---------|---------|---------|---------|---------|---------|

D#|---------|---------|---------|---------|---------|---------|---------|---------|
A#|---------|---------|---------|---------|---------|---------|---------|---------|
F#|-%-------|-%-------|-%-------|-%-------|-%-------|-%-------|-%-------|-%-------|
C#|-%-------|-%-------|-%-------|-%-------|-%-------|-%-------|-%-------|-%-------|
G#|---------|---------|---------|---------|---------|---------|---------|---------|
D#|---------|---------|---------|---------|---------|---------|---------|---------|

D#|---------|---------|---------|-2-----2---------0----2---------3----|------2-----------------------------0---0---|
A#|---------|---------|---------|-3-----3----3----3----3----3----3----|-3----3----3----0----0----3----3----1---1---|
F#|-%-------|-%-------|-%-------|-2-----2----2----2----2----2----2----|-2----2----2----0----0----2----2----0---0---|
C#|-%-------|-%-------|-%-------|-0-----0----0----0----0----0----0----|-0----0----0----0----0----0----0----2---2---|
G#|---------|---------|---------|-------------------------------------|------------------------------------3---3---|
D#|---------|---------|---------|-------------------------------------|--------------------------------------------|

D#|----------------0--------------------|---------------------------------|-2-----2---------0----2-----3----|
A#|----------------1-----1----1----0----|----------------------------0----|-3-----3----3----3----3-----3----|
F#|------0---------0-----0----0----0----|-0----------0---------------0----|-2-----2----2----2----2-----2----|
C#|-2---------2----------2----2----0----|-0-----0----------0---------0----|-0-----0----0----0----0-----0----|
G#|-3---------3----------3----3---------|-2---------------------2---------|---------------------------------|
D#|-------------------------------------|-3-------------------------------|---------------------------------|

D#|------2---------0---------2--------------|----------------0--------------------|
A#|-3----3----3----3----3----3----3----0----|----------------1-----1----1----0----|
F#|-2----2----2----2----2----2----2----0----|------0---------0-----0----0----0----|
C#|-0----0----0----0----0----0----0----0----|-2---------2----------2----2----0----|
G#|-----------------------------------------|-3---------3----------3----3---------|
D#|-----------------------------------------|-------------------------------------|

D#|---------------------------------|-2-----2---------0----2-----3----|------2---------0---------2---------2---2---|
A#|----------------------------0----|-3-----3----3----3----3-----3----|-3----3----3----3----3----3----3----3---3---|
F#|-0----------0---------------0----|-2-----2----2----2----2-----2----|-2----2----2----2----2----2----2----2---2---|
C#|-0-----0----------0---------0----|-0-----0----0----0----0-----0----|-0----0----0----0----0----0----0----0---0---|
G#|-2---------------------2---------|---------------------------------|--------------------------------------------|
D#|-3-------------------------------|---------------------------------|--------------------------------------------|

D#|----------------0--------------------|---------------------------------|-2-----2---------0----2-----3----|
A#|----------------1-----1----1----0----|----------------------------0----|-3-----3----3----3----3-----3----|
F#|------0---------0-----0----0----0----|-0----------0---------------0----|-2-----2----2----2----2-----2----|
C#|-2---------2----------2----2----0----|-0-----0----------0---------0----|-0-----0----0----0----0-----0----|
G#|-3---------3----------3----3---------|-2---------------------2---------|---------------------------------|
D#|-------------------------------------|-3-------------------------------|---------------------------------|

D#|------2---------0---------2--------------|----------------0--------------------|
A#|-3----3----3----3----3----3----3----0----|----------------1-----1----1----0----|
F#|-2----2----2----2----2----2----2----0----|------0---------0-----0----0----0----|
C#|-0----0----0----0----0----0----0----0----|-2---------2----------2----2----0----|
G#|-----------------------------------------|-3---------3----------3----3---------|
D#|-----------------------------------------|-------------------------------------|

D#|---------------------------------|-2-----2---------0----2---------3----|------2---------0---------2---------2---2---|
A#|----------------------------0----|-3-----3----3----3----3----3----3----|-3----3----3----3----3----3----3----3---3---|
F#|-0----------0---------------0----|-2-----2----2----2----2----2----2----|-2----2----2----2----2----2----2----2---2---|
C#|-0-----0----------0---------0----|-0-----0----0----0----0----0----0----|-0----0----0----0----0----0----0----0---0---|
G#|-2---------------------2---------|-------------------------------------|--------------------------------------------|
D#|-3-------------------------------|-------------------------------------|--------------------------------------------|

D#|-2-----2---------0----2---------3----|------2---------0---------2---------2---2---|
A#|-3-----3----3----3----3----3----3----|-3----3----3----3----3----3----3----3---3---|
F#|-2-----2----2----2----2----2----2----|-2----2----2----2----2----2----2----2---2---|
C#|-0-----0----0----0----0----0----0----|-0----0----0----0----0----0----0----0---0---|
G#|-------------------------------------|--------------------------------------------|
D#|-------------------------------------|--------------------------------------------|

D#|-2-----2---------0----2---------3----|------2---------0---------2---------2---2---|
A#|-3-----3----3----3----3----3----3----|-3----3----3----3----3----3----3----3---3---|
F#|-2-----2----2----2----2----2----2----|-2----2----2----2----2----2----2----2---2---|
C#|-0-----0----0----0----0----0----0----|-0----0----0----0----0----0----0----0---0---|
G#|-------------------------------------|--------------------------------------------|
D#|-------------------------------------|--------------------------------------------|

D#|-2-----2---------0----2---------3----|-3----2-----0----------------|---------|---------|
A#|-3-----3----3----3----3----3----3----|-3----3-----3-----3-----3----|-3-------|-3-------|
F#|-2-----2----2----2----2----2----2----|-2----2-----2-----2-----2----|-2-------|-2-------|
C#|-0-----0----0----0----0----0----0----|-0----0-----0-----0-----0----|-0-------|-0-------|
G#|-------------------------------------|-----------------------------|---------|---------|
D#|-------------------------------------|-----------------------------|---------|---------|

D#|-2-----2---------2-----2----2----|-------------------3---3----3---3----3---3---3---3---|
A#|-3-----3---------3-----3----3----|-3----3---3---3----3---3----3---3----3---3---3---3---|
F#|-2-----2---------2-----2----2----|-0----0---0---0----0---0----0---0----0---0---0---0---|
C#|-0-----0---------0-----0----0----|-0----0---0---0----0---0----0---0----0---0---0---0---|
G#|-0-------------------------------|-2------------2----2---2----2---2----2---2---2---2---|
D#|-------2----0----2-----2----2----|-3------------3----3---3----3---3----3---3---3---3---|

D#|-2-----2---------2-----2----2----|-------------------3---3----3---3----3---3---3---3---|
A#|-3-----3---------3-----3----3----|-3----3---3---3----3---3----3---3----3---3---3---3---|
F#|-2-----2---------2-----2----2----|-0----0---0---0----0---0----0---0----0---0---0---0---|
C#|-0-----0---------0-----0----0----|-0----0---0---0----0---0----0---0----0---0---0---0---|
G#|-0-------------------------------|-2------------2----2---2----2---2----2---2---2---2---|
D#|-------2----0----2-----2----2----|-3------------3----3---3----3---3----3---3---3---3---|

D#|-2-----2---------2-----2----2----|-------------------3---3----3---3----3---3---3---3---|
A#|-3-----3---------3-----3----3----|-3----3---3---3----3---3----3---3----3---3---3---3---|
F#|-2-----2---------2-----2----2----|-0----0---0---0----0---0----0---0----0---0---0---0---|
C#|-0-----0---------0-----0----0----|-0----0---0---0----0---0----0---0----0---0---0---0---|
G#|-0-------------------------------|-2------------2----2---2----2---2----2---2---2---2---|
D#|-------2----0----2-----2----2----|-3------------3----3---3----3---3----3---3---3---3---|

D#|-2-----2---------2-----2----2----|-------------------3---3----3---3----3---3---3---3---|
A#|-3-----3---------3-----3----3----|-3----3---3---3----3---3----3---3----3---3---3---3---|
F#|-2-----2---------2-----2----2----|-0----0---0---0----0---0----0---0----0---0---0---0---|
C#|-0-----0---------0-----0----0----|-0----0---0---0----0---0----0---0----0---0---0---0---|
G#|-0-------------------------------|-2------------2----2---2----2---2----2---2---2---2---|
D#|-------2----0----2-----2----2----|-3------------3----3---3----3---3----3---3---3---3---|

D#|-2-----2---------2-----2----2----|-------------------3---3----3---3----3---3---3---3---|
A#|-3-----3---------3-----3----3----|-3----3---3---3----3---3----3---3----3---3---3---3---|
F#|-2-----2---------2-----2----2----|-0----0---0---0----0---0----0---0----0---0---0---0---|
C#|-0-----0---------0-----0----0----|-0----0---0---0----0---0----0---0----0---0---0---0---|
G#|-0-------------------------------|-2------------2----2---2----2---2----2---2---2---2---|
D#|-------2----0----2-----2----2----|-3------------3----3---3----3---3----3---3---3---3---|

D#|-2-----2---------2-----2----2----|-------------------3---3----3---3----3---3---3---3---|
A#|-3-----3---------3-----3----3----|-3----3---3---3----3---3----3---3----3---3---3---3---|
F#|-2-----2---------2-----2----2----|-0----0---0---0----0---0----0---0----0---0---0---0---|
C#|-0-----0---------0-----0----0----|-0----0---0---0----0---0----0---0----0---0---0---0---|
G#|-0-------------------------------|-2------------2----2---2----2---2----2---2---2---2---|
D#|-------2----0----2-----2----2----|-3------------3----3---3----3---3----3---3---3---3---|

D#|-2-----2---------2-----2----2----|-------------------3---3----3---3----3---3---3---3---|
A#|-3-----3---------3-----3----3----|-3----3---3---3----3---3----3---3----3---3---3---3---|
F#|-2-----2---------2-----2----2----|-0----0---0---0----0---0----0---0----0---0---0---0---|
C#|-0-----0---------0-----0----0----|-0----0---0---0----0---0----0---0----0---0---0---0---|
G#|-0-------------------------------|-2------------2----2---2----2---2----2---2---2---2---|
D#|-------2----0----2-----2----2----|-3------------3----3---3----3---3----3---3---3---3---|

D#|-2-----2---------2-----2----2----|-------------------3---3----3---3----3---3---3---3---|
A#|-3-----3---------3-----3----3----|-3----3---3---3----3---3----3---3----3---3---3---3---|
F#|-2-----2---------2-----2----2----|-0----0---0---0----0---0----0---0----0---0---0---0---|
C#|-0-----0---------0-----0----0----|-0----0---0---0----0---0----0---0----0---0---0---0---|
G#|-0-------------------------------|-2------------2----2---2----2---2----2---2---2---2---|
D#|-------2----0----2-----2----2----|-3------------3----3---3----3---3----3---3---3---3---|

D#|-2-----2---------2-----2----2----|-------------------3---3----3---3----3---3---3---3---|
A#|-3-----3---------3-----3----3----|-3----3---3---3----3---3----3---3----3---3---3---3---|
F#|-2-----2---------2-----2----2----|-0----0---0---0----0---0----0---0----0---0---0---0---|
C#|-0-----0---------0-----0----0----|-0----0---0---0----0---0----0---0----0---0---0---0---|
G#|-0-------------------------------|-2------------2----2---2----2---2----2---2---2---2---|
D#|-------2----0----2-----2----2----|-3------------3----3---3----3---3----3---3---3---3---|

D#|-2-----2---------2-----2----2----|-------------------3---3----3---3----3---3---3---3---|
A#|-3-----3---------3-----3----3----|-3----3---3---3----3---3----3---3----3---3---3---3---|
F#|-2-----2---------2-----2----2----|-0----0---0---0----0---0----0---0----0---0---0---0---|
C#|-0-----0---------0-----0----0----|-0----0---0---0----0---0----0---0----0---0---0---0---|
G#|-0-------------------------------|-2------------2----2---2----2---2----2---2---2---2---|
D#|-------2----0----2-----2----2----|-3------------3----3---3----3---3----3---3---3---3---|

D#|-3----2------------------------------|-2-------|
A#|-----------3-------------------------|-3-------|
F#|----------------2--------------------|-2-------|
C#|---------------------5----4----0-----|-0-------|
G#|-------------------------------------|---------|
D#|-------------------------------------|---------|
Guns N' Roses - Patience
Guns N' Roses - Patience.gp3