Guns N' Roses - Patience(chord style)

Guns N Roses



Title: Patience
Album: 
Artist: Guns N' Roses
Author: 

Track 1: Voice 1
D#|---------|---------|---------|---------|---------|---------|---------|---------|
A#|---------|---------|---------|---------|---------|---------|---------|---------|
F#|-%-------|-%-------|-%-------|-%-------|-%-------|-%-------|-%-------|-%-------|
C#|-%-------|-%-------|-%-------|-%-------|-%-------|-%-------|-%-------|-%-------|
G#|---------|---------|---------|---------|---------|---------|---------|---------|
D#|---------|---------|---------|---------|---------|---------|---------|---------|

D#|-----------------------------------------------------|-------------------------------------------------|
A#|-----------------------------------------------------|---------0---0-----------------------------------|
F#|-%----0---0---0----0---0---2---2---2---0---0----%----|-%---------------4---4---0---0---0----%----%-----|
C#|-%----------------------------------------------%----|-%---0--------------------------------%----%-----|
G#|-----------------------------------------------------|-------------------------------------------------|
D#|-----------------------------------------------------|-------------------------------------------------|

D#|-----------------------------------------------------|---------------------------|
A#|-----------------------0---0-------------------------|---------------------------|
F#|-%----2---2---2----2-----------2----2---2---2--------|---------------%----%------|
C#|-%-----------------------------------------------2---|-2---2---0-----%----%------|
G#|-----------------------------------------------------|---------------------------|
D#|-----------------------------------------------------|---------------------------|

D#|--------------------------------------------------------|------------------------------------------|
A#|--------------------------------------------------------|------0---0-------------------------------|
F#|-%----0---0---0----0---0---2---2---2---0---0----2---0---|-%------------2---2---0---0---0-----%-----|
C#|-%------------------------------------------------------|-%----------------------------------%-----|
G#|--------------------------------------------------------|------------------------------------------|
D#|--------------------------------------------------------|------------------------------------------|

D#|--------------------------------------------------|---------------------------|--------------------------------------------------|
A#|--------------------0---0-------------------------|---------------------------|------1----1---1---1------------------------------|
F#|-%---------2---2------------2----2---2---2--------|---------------%----%------|-%----------------------0---0----0---0----0-------|
C#|-%--------------------------------------------2---|-2---2---0-----%----%------|-%--------------------------------------------2---|
G#|-------0------------------------------------------|---------------------------|--------------------------------------------------|
D#|--------------------------------------------------|---------------------------|--------------------------------------------------|

D#|-------------------------------------------|-----------------------------------------------------|
A#|-1----1---1---1---0------------------------|-1----1---1---1------------1----0----------------0---|
F#|--------------------------------%----%-----|------------------4---4-------------0---0---0--------|
C#|-----------------------2---2----%----%-----|-----------------------------------------------------|
G#|-------------------------------------------|-----------------------------------------------------|
D#|-------------------------------------------|-----------------------------------------------------|

D#|------------------------|-----------------------------------------------------|-------------------------------------------|
A#|-0----------------------|------1----1---1---1---------------------------------|-1----1---1---1---0------------------------|
F#|-----2-----%-----%------|-%----------------------0---0----0---0---%---0-------|--------------------------------%----%-----|
C#|-----------%-----%------|-%---------------------------------------%-------2---|-----------------------2---2----%----%-----|
G#|------------------------|-----------------------------------------------------|-------------------------------------------|
D#|------------------------|-----------------------------------------------------|-------------------------------------------|

D#|--------------------------------------------------------|------------------------|
A#|-1----1---1---1---0---0---1---1---0-----------------0---|-0----------------------|
F#|---------------------------------------0---0---0--------|-----2-----%-----%------|
C#|--------------------------------------------------------|-----------%-----%------|
G#|--------------------------------------------------------|------------------------|
D#|--------------------------------------------------------|------------------------|

D#|---------------------------------|-----------------------------|------------------------|
A#|-------------0---0---0-----------|-------3------3----0----0----|------------------------|
F#|-%-----%-------------------%-----|-%-----------------0----0----|-2----2-----%----%------|
C#|-%-----%-------------------%-----|-%---------------------------|------------%----%------|
G#|---------------------------------|-----------------------------|------------------------|
D#|---------------------------------|-----------------------------|------------------------|

D#|---------|---------|---------|---------|---------|---------|---------|-0-------|
A#|---------|---------|---------|---------|---------|---------|---------|---------|
F#|-%-------|-%-------|-%-------|-%-------|-%-------|-%-------|-%-------|---------|
C#|-%-------|-%-------|-%-------|-%-------|-%-------|-%-------|-%-------|---------|
G#|---------|---------|---------|---------|---------|---------|---------|---------|
D#|---------|---------|---------|---------|---------|---------|---------|---------|

D#|---------|---------|---------|---------|---------|---------|---------|---------|
A#|---------|---------|---------|---------|---------|---------|---------|---------|
F#|-%-------|-%-------|-%-------|-%-------|-%-------|-%-------|-%-------|-%-------|
C#|-%-------|-%-------|-%-------|-%-------|-%-------|-%-------|-%-------|-%-------|
G#|---------|---------|---------|---------|---------|---------|---------|---------|
D#|---------|---------|---------|---------|---------|---------|---------|---------|

D#|---------|------7---5---2---2---2---2---2----5---2---------|------7----2---1---0---2---2----5---2---------|
A#|---------|-------------------------------------------------|----------------------------------------------|
F#|-%-------|-%-----------------------------------------%-----|-%--------------------------------------%-----|
C#|-%-------|-%-----------------------------------------%-----|-%--------------------------------------%-----|
G#|---------|-------------------------------------------------|----------------------------------------------|
D#|---------|-------------------------------------------------|----------------------------------------------|

D#|------2---0---2----2---0---2---0-------2---2---------|-2---0---2----2----2---0---2---2---0---2--------2---0---|
A#|-----------------------------------3-----------------|--------------------------------------------------------|
F#|-%----------------------------------------------%----|-------------------------------------------%------------|
C#|-%----------------------------------------------%----|-------------------------------------------%------------|
G#|-----------------------------------------------------|--------------------------------------------------------|
D#|-----------------------------------------------------|--------------------------------------------------------|

D#|-2----2----2----2----2---0-------2---2---------|------2----2----2----2---2---5---2---2---2---5---1---|
A#|-----------------------------3-----------------|-----------------------------------------------------|
F#|------------------------------------------%----|-%---------------------------------------------------|
C#|------------------------------------------%----|-%---------------------------------------------------|
G#|-----------------------------------------------|-----------------------------------------------------|
D#|-----------------------------------------------|-----------------------------------------------------|

D#|-1---0--------------7---5----2---2---2---5---0---|-0---------------7------7---7---|
A#|---------3---------------------------------------|------3-------------------------|
F#|--------------%----------------------------------|-----------%--------------------|
C#|--------------%----------------------------------|-----------%--------------------|
G#|-------------------------------------------------|--------------------------------|
D#|-------------------------------------------------|--------------------------------|

D#|-7----5----------7------12--6---|-6---5---3----------7------7----|-7-----5---5-----2----2----2----2----|
A#|--------------------------------|--------------------------------|-------------------------------------|
F#|-----------%--------------------|--------------%-----------------|-------------------------------------|
C#|-----------%--------------------|--------------%-----------------|-------------------------------------|
G#|--------------------------------|--------------------------------|-------------------------------------|
D#|--------------------------------|--------------------------------|-------------------------------------|

D#|--------------------|---------|
A#|-3----3-------------|---------|
F#|-------------%------|-%-------|
C#|-------------%------|-%-------|
G#|--------------------|---------|
D#|--------------------|---------|
Guns N' Roses - Patience(chord style)
Guns N' Roses - Patience(chord style).gp3