Guns N' Roses - Reckless Life

Guns N Roses



Title: Reckless Life
Album: 
Artist: 
Author: Guns N' Roses

Track 1: Guitar I
E|---------|---------|---------|-------------------------------------|-------------------------------------|
B|---------|---------|---------|-------------------------------------|-------------------------------------|
G|-%-------|-%-------|-%-------|----------------------2----2----2----|----------------------2----2----2----|
D|-%-------|-%-------|-%-------|----------------------2----2----2----|----------------------2----2----2----|
A|---------|---------|---------|-3----0---------------0----0----0----|-3----0---------------0----0----0----|
E|---------|---------|---------|------------3----3-------------------|------------3----3-------------------|

E|-------2-------|---------------------------------|-------------------------------------|
B|-------3-------|-5-----X----5--------------------|-------------------------------------|
G|-%-----2-------|-5-----X----5----5---------------|----------------------2----2----2----|
D|-%-----0-------|-5-----X----5----5---------------|----------------------2----2----2----|
A|---------------|-3-----X----3----3-----0----0----|-3----0---------------0----0----0----|
E|---------------|---------------------------------|------------3----3-------------------|

E|-------------------------------------|-------3-------|-2-----X----2----2---------------|
B|-------------------------------------|-------3-------|-3-----X----3----3---------------|
G|----------------------2----2----2----|-%-----0-------|-2-----X----2----2---------------|
D|----------------------2----2----2----|-%-----0-------|-0-----X----0----0---------------|
A|-3----0---------------0----0----0----|---------------|-----------------------0----0----|
E|------------3----3-------------------|-------3-------|---------------------------------|

E|-------------------------------------|-------------------------------------|-------2-------|
B|-------------------------------------|-------------------------------------|-------3-------|
G|----------------------2----2----2----|----------------------2----2----2----|-%-----2-------|
D|----------------------2----2----2----|----------------------2----2----2----|-%-----0-------|
A|-3----0---------------0----0----0----|-3----0---------------0----0----0----|---------------|
E|------------3----3-------------------|------------3----3-------------------|---------------|

E|---------------------------------|-------------------------------------|-------------------------------------|
B|-5-----X----5--------------------|-------------------------------------|-------------------------------------|
G|-5-----X----5----5---------------|----------------------2----2----2----|----------------------2----2----2----|
D|-5-----X----5----5---------------|----------------------2----2----2----|----------------------2----2----2----|
A|-3-----X----3----3-----0----0----|-3----0---------------0----0----0----|-3----0---------------0----0----0----|
E|---------------------------------|------------3----3-------------------|------------3----3-------------------|

E|-------3-------|-2-----X----2----2---------------|-2------------------|---------|
B|-------3-------|-3-----X----3----3---------------|-3------------------|---------|
G|-%-----0-------|-2-----X----2----2---------------|-2-----%------%-----|-2-------|
D|-%-----0-------|-0-----X----0----0---------------|-0-----%------%-----|-2-------|
A|---------------|-----------------------0----0----|--------------------|-0-------|
E|-------3-------|---------------------------------|--------------------|---------|

E|---------------|---------------|---------------|---------|---------|---------|--------------------|
B|---------------|-3-----3-------|---------------|---------|---------|---------|--------------------|
G|-2-------2-----|-2-----2-------|-5-------4-----|-4-------|-4-------|-4-------|-4------2-----4-----|
D|-2-------2-----|-0-----0-------|-5-------4-----|-4-------|-4-------|-4-------|-4------2-----4-----|
A|-0-------0-----|---------------|-3-------2-----|-2-------|-2-------|-2-------|-2------0-----2-----|
E|---------------|---------------|---------------|---------|---------|---------|--------------------|

E|---------|-------------------------|---------|--------------------|---------|--------------------|
B|---------|-------------------------|---------|--------------------|---------|--------------------|
G|-5-------|-5-----5-----7-----5-----|-4-------|-4------2-----4-----|-5-------|-7-----%------%-----|
D|-5-------|-5-----5-----7-----5-----|-4-------|-4------2-----4-----|-5-------|-7-----%------%-----|
A|-3-------|-3-----3-----5-----3-----|-2-------|-2------0-----2-----|-3-------|-5------------------|
E|---------|-------------------------|---------|--------------------|---------|--------------------|

E|---------|---------|---------|--------------------|---------|---------|---------|
B|---------|---------|---------|--------------------|---------|---------|---------|
G|-7-------|-7-------|-5-------|--------5----5------|-7-------|-7-------|-5-------|
D|-7-------|-7-------|-5-------|-5------5----5------|-7-------|-7-------|-5-------|
A|-5-------|-5-------|-3-------|-5------3----3------|-5-------|-5-------|-3-------|
E|---------|---------|---------|-3------------------|---------|---------|---------|

E|--------------------|---------|---------|---------|--------------------|---------|
B|--------------------|---------|---------|---------|--------------------|---------|
G|--------5----5------|-7-------|-7-------|-5-------|--------5----5------|-7-------|
D|-5------5----5------|-7-------|-7-------|-5-------|-5------5----5------|-7-------|
A|-5------3----3------|-5-------|-5-------|-3-------|-5------3----3------|-5-------|
E|-3------------------|---------|---------|---------|-3------------------|---------|

E|---------|-------------------------|-------------------------|-------------------------------------|
B|---------|-------------------------|-------------------------|-------------------------------------|
G|-7-------|-5-----------------5-----|-5-----------5-----------|-4----------4----4----4----4---------|
D|-7-------|-5------5----5-----5-----|-5----5------5-----5-----|-4----------4----4----4----4---------|
A|-5-------|-3------5----5-----3-----|-3----5------3-----5-----|-2-----X----2----2----2----2----X----|
E|---------|--------3----3-----------|------3------------3-----|-------------------------------------|

E|-------------------------------------|------------------------|---------------------------------|
B|-------------------------------------|-----------3------3-----|---------------------------------|
G|-4----------4----4----4----2----4----|-2----%----2------2-----|-2----------2----2---------------|
D|-4----------4----4----4----2----4----|-2----%----0------0-----|-2----------2----2-----5----7----|
A|-2-----X----2----2----2----0----2----|-0----------------------|-0-----X----0----0-----5----7----|
E|-------------------------------------|------------------------|-----------------------3----5----|

E|-------------------------------------|-------------------------------------|--------------------|
B|-------------------------------------|-------------------------------------|--------------------|
G|-4----------4----4----4----4----2----|-4----------4----4----2----2----%----|-%------------------|
D|-4----------4----4----4----4----2----|-4-----X----4----4----2----2----%----|-%-----5------5-----|
A|-2-----X----2----2----2----2----0----|-2-----X----2----2----0----0---------|-------5------5-----|
E|-------------------------------------|-------------------------------------|-------3------3-----|

E|-------------------------------------|-------------------------------------|-------------------------------------|
B|-------------------------------------|-------------------------------------|-------------------------------------|
G|-2----2------------------------------|-4----------4----4----4----4---------|-4----------4----4----4----2----4----|
D|-2----2----5----7----7-----7----7----|-4----------4----4----4----4---------|-4----------4----4----4----2----4----|
A|-0----0----5----7----7-----7----7----|-2-----X----2----2----2----2----X----|-2-----X----2----2----2----0----2----|
E|-----------3----5----5-----5----5----|-------------------------------------|-------------------------------------|

E|------------------------|---------------------------------|-------------------------------------|
B|-----------3------3-----|---------------------------------|-------------------------------------|
G|-2----%----2------2-----|-2----------2----2---------------|-4----------4----4----4----4----2----|
D|-2----%----0------0-----|-2----------2----2-----5----7----|-4----------4----4----4----4----2----|
A|-0----------------------|-0-----X----0----0-----5----7----|-2-----X----2----2----2----2----0----|
E|------------------------|-----------------------3----5----|-------------------------------------|

E|-------------------------------------|--------------------|-------------------------|
B|-------------------------------------|--------------------|-------------------------|
G|-4----------4----4----2----2----%----|-%------------------|-------------------------|
D|-4-----X----4----4----2----2----%----|-%-----5------5-----|-7-----8-----9-----10----|
A|-2-----X----2----2----0----0---------|-------5------5-----|-7-----8-----9-----10----|
E|-------------------------------------|-------3------3-----|-5-----6-----7-----8-----|

E|-----------------------------------------|-----------------------------------------|
B|----------------7----7-------------------|----------------7----7-------------------|
G|-4----6----6----6----6----6----6----6----|-4----6----6----6----6----6----6----6----|
D|-4----6----6----6----6----6----6----6----|-4----6----6----6----6----6----6----6----|
A|-2----4----4----4----4----4----4----4----|-2----4----4----4----4----4----4----4----|
E|-----------------------------------------|-----------------------------------------|

E|-------------------|---------------------------------|-------------------------------------|
B|-------------------|---------------------------------|------7----7-------------------------|
G|-6----6----9-------|-4----------4----4---------------|-6----6----6----6----6---------------|
D|-6----6----9-------|-4----------4----4---------------|-6----6----6----6----6---------------|
A|-4----4----7-------|-2-----X----2----2-----X----X----|-4----4----4----4----4-----X----X----|
E|-------------------|---------------------------------|-------------------------------------|

E|-----------------------------|----------------------------|---------------------------------|
B|-----------------------------|----------------------------|---------------------------------|
G|-6----------6----6-----4-----|-----------2------2----2----|-4----------4----4-----4----4----|
D|-6----------6----6-----4-----|-----------2------2----2----|-4----------4----4-----4----4----|
A|-4-----X----4----4-----2-----|-X----X----0------0----0----|-2-----X----2----2-----2----2----|
E|-----------------------------|----------------------------|---------------------------------|

E|-----------------------------------------|-----------------------------------------|
B|----------------7----7-------------------|----------------7----7-------------------|
G|-4----6----6----6----6----6----6----6----|-4----6----6----6----6----6----6----6----|
D|-4----6----6----6----6----6----6----6----|-4----6----6----6----6----6----6----6----|
A|-2----4----4----4----4----4----4----4----|-2----4----4----4----4----4----4----4----|
E|-----------------------------------------|-----------------------------------------|

E|-------------------|---------------------------------|-------------------------------------|
B|-------------------|---------------------------------|------7----7-------------------------|
G|-6----6----9-------|-4----------4----4---------------|-6----6----6----6----6---------------|
D|-6----6----9-------|-4----------4----4---------------|-6----6----6----6----6---------------|
A|-4----4----7-------|-2-----X----2----2-----X----X----|-4----4----4----4----4-----X----X----|
E|-------------------|---------------------------------|-------------------------------------|

E|-----------------------------|-------------------------|-----------------------------|
B|-----------------------------|-------------------------|-----------------------------|
G|-6----------6----6-----4-----|-6------5----5-----4-----|-4----4------2-----2----2----|
D|-6----------6----6-----4-----|-6------5----5-----4-----|-4----4------2-----2----2----|
A|-4-----X----4----4-----2-----|-4------3----3-----2-----|-2----2------0-----0----0----|
E|-----------------------------|-------------------------|-----------------------------|

E|---------|---------|---------|--------------------|---------|---------|---------|
B|---------|---------|---------|--------------------|---------|---------|---------|
G|-7-------|-7-------|-5-------|--------5----5------|-7-------|-7-------|-5-------|
D|-7-------|-7-------|-5-------|-5------5----5------|-7-------|-7-------|-5-------|
A|-5-------|-5-------|-3-------|-5------3----3------|-5-------|-5-------|-3-------|
E|---------|---------|---------|-3------------------|---------|---------|---------|

E|--------------------|---------|---------|---------|--------------------|---------|
B|--------------------|---------|---------|---------|--------------------|---------|
G|--------5----5------|-7-------|-7-------|-5-------|--------5----5------|-7-------|
D|-5------5----5------|-7-------|-7-------|-5-------|-5------5----5------|-7-------|
A|-5------3----3------|-5-------|-5-------|-3-------|-5------3----3------|-5-------|
E|-3------------------|---------|---------|---------|-3------------------|---------|

E|---------|---------|---------------|---------|--------------------|---------|-------------------------|
B|---------|---------|---------------|---------|--------------------|---------|-------------------------|
G|-7-------|-5-------|-5-------------|-7-------|-7------7----7------|-5-------|-%-----------5-----5-----|
D|-7-------|-5-------|-5-------------|-7-------|-7------7----7------|-5-------|-%-----5-----5-----5-----|
A|-5-------|-3-------|-3-------X-----|-5-------|-5------5----5------|-3-------|-------5-----3-----3-----|
E|---------|---------|---------------|---------|--------------------|---------|-------3-----------------|

E|---------|---------|---------|-------------------------|---------|---------|---------|
B|---------|---------|---------|-------------------------|---------|---------|---------|
G|-7-------|-7-------|-5-------|-%-----------5-----5-----|-7-------|-7-------|-5-------|
D|-7-------|-7-------|-5-------|-%-----5-----5-----5-----|-7-------|-7-------|-5-------|
A|-5-------|-5-------|-3-------|-------5-----3-----3-----|-5-------|-5-------|-3-------|
E|---------|---------|---------|-------3-----------------|---------|---------|---------|

E|-------------------------|---------|---------------|-------------------------|-------------------------|
B|-------------------------|---------|---------------|-------------------------|-------------------------|
G|-%-----------5-----5-----|-7-------|-7-------7-----|-5-----------------5-----|-5-----------5-----------|
D|-%-----5-----5-----5-----|-7-------|-7-------7-----|-5------5----5-----5-----|-5----5------5-----5-----|
A|-------5-----3-----3-----|-5-------|-5-------5-----|-3------5----5-----3-----|-3----5------3-----5-----|
E|-------3-----------------|---------|---------------|--------3----3-----------|------3------------3-----|

E|-------------------------|-------------------------|-------------------------|-------------------------|
B|-------------------------|-------------------------|-------------------------|-------------------------|
G|-5-----------------5-----|-5-----------5-----------|-5-----------------5-----|-5-----------5-----------|
D|-5------5----5-----5-----|-5----5------5-----5-----|-5------5----5-----5-----|-5----5------5-----5-----|
A|-3------5----5-----3-----|-3----5------3-----5-----|-3------5----5-----3-----|-3----5------3-----5-----|
E|--------3----3-----------|------3------------3-----|--------3----3-----------|------3------------3-----|

E|---------|--------------------|
B|---------|--------------------|
G|-7-------|-7-----%-----%------|
D|-7-------|-7-----%-----%------|
A|-5-------|-5------------------|
E|---------|--------------------|
Guns N' Roses - Reckless Life
Guns N' Roses - Reckless Life.gp3