Guns N' Roses - Right Next Door To Hell

Guns N' Roses - Right Next Door To Hell

Guns N Roses



Title: Right Next Door To Hell
Album: USE YOUR ILLUSION 1
Artist: Guns N' Roses
Author: MaD

Track 1: Guitar 1
D#|---------|---------|---------|---------|---------|---------------|---------------|
A#|---------|---------|---------|---------|---------|---------------|---------------|
F#|-%-------|-%-------|-%-------|---------|---------|---------------|--------%------|
C#|-%-------|-%-------|-%-------|---------|---------|--------14-----|-14-----%------|
G#|---------|---------|---------|-12------|-12------|-12------------|---------------|
D#|---------|---------|---------|-12------|-12------|-12------------|---------------|

D#|---------------|-----------------------------------------|-------------------------------------|
A#|---------------|-----------------------------------------|-2-----0----2----2----0----2----0----|
F#|-%-------------|-----------------------------------------|-2-----0----2----2----0----2----0----|
C#|-%-------------|----------------2----0-------------------|-------------------------------------|
G#|--------20-----|--------------------------2--------------|-------------------------------------|
D#|--------20-----|-0----3----4-------------------3----0----|-------------------------------------|

D#|-----------------------------------------|------------------------|-----------------------------------------|
A#|-----------------------------------------|-2-----0----2----2------|-----------------------------------------|
F#|-----------------------------------------|-2-----0----2----2------|-----------------------------------------|
C#|----------------2----0-------------------|------------------------|----------------2----0-------------------|
G#|--------------------------2--------------|------------------------|--------------------------2--------------|
D#|-0----3----4-------------------3----0----|------------------------|-0----3----4-------------------3----0----|

D#|-------------------------------------|-----------------------------------------|
A#|-2-----0----2----2----0----2----0----|-----------------------------------------|
F#|-2-----0----2----2----0----2----0----|-----------------------------------------|
C#|-------------------------------------|----------------2----0-------------------|
G#|-------------------------------------|--------------------------2--------------|
D#|-------------------------------------|-0----3----4-------------------3----0----|

D#|------------------------|-----------------------------------------|-------------------------------------|
A#|-2-----0----2----2------|-----------------------------------------|-2-----0----2----2----0----2----0----|
F#|-2-----0----2----2------|-----------------------------------------|-2-----0----2----2----0----2----0----|
C#|------------------------|----------------2----0-------------------|-------------------------------------|
G#|------------------------|--------------------------2--------------|-------------------------------------|
D#|------------------------|-0----3----4-------------------3----0----|-------------------------------------|

D#|----------------------------|------------------------|-----------------------------------------|
A#|----------------------------|-2-----0----2----2------|-----------------------------------------|
F#|----------------------------|-2-----0----2----2------|-----------------------------------------|
C#|----------------2----0------|------------------------|----------------2----0-------------------|
G#|----------------------------|------------------------|--------------------------2--------------|
D#|-0----3----4----------------|------------------------|-0----3----4-------------------3----0----|

D#|-------------------------------------|-----------------------------------------|
A#|-2-----0----2----2----0----2----0----|-----------------------------------------|
F#|-2-----0----2----2----0----2----0----|-----------------------------------------|
C#|-------------------------------------|----------------2----0-------------------|
G#|-------------------------------------|--------------------------2---------0----|
D#|-------------------------------------|-0----3----4-------------------3---------|

D#|------------------------|-----------------------------|-------------------------------------|
A#|-2-----0----2----2------|-----------------------------|-------------------------------------|
F#|-2-----0----2----2------|-4-----4-----4-----6----7----|-7----7----X----7----7----7-----5----|
C#|------------------------|-4-----4-----4-----6----7----|-7----7----X----7----7----7-----5----|
G#|------------------------|-2-----2-----2-----4----5----|-5----5----X----5----5----5-----3----|
D#|------------------------|-----------------------------|-------------------------------------|

D#|-----------------------------|---------------------------------|-------------------------------------|
A#|-----------------------------|---------------------------------|-------------------------------------|
F#|-4-----4-----4-----X----2----|-2----2----2----0----0----2------|-4-----4----4----4----4----6----7----|
C#|-4-----4-----4-----X----2----|-2----2----2----0----0----2------|-4-----4----4----4----4----6----7----|
G#|-2-----2-----2-----X----0----|-0----0----0----X---------0------|-2-----2----2----2----2----4----5----|
D#|-----------------------------|----------------3----3-----------|-------------------------------------|

D#|-------------------------------------|---------------------------------|-------------------------------------|
A#|-------------------------------------|---------------------------------|-------------------------------------|
F#|-7----7----X----7----7----7-----5----|-4-----4-----4----4----4----2----|-2----2----X----0----0----2-----X----|
C#|-7----7----X----7----7----7-----5----|-4-----4-----4----4----4----2----|-2----2----X----0----0----2-----X----|
G#|-5----5----X----5----5----5-----3----|-2-----2-----2----2----2----0----|-0----0----X----X----0----0-----X----|
D#|-------------------------------------|---------------------------------|----------------3----3---------------|

D#|-------------------------------------|-------------------------------------|---------------------------------|
A#|-------------------------------------|-------------------------------------|---------------------------------|
F#|-4-----4----4----4----4----6----7----|-7----7----X----7----7----7-----5----|-4-----4-----4----4----4----2----|
C#|-4-----4----4----4----4----6----7----|-7----7----X----7----7----7-----5----|-4-----4-----4----4----4----2----|
G#|-2-----2----2----2----2----4----5----|-5----5----X----5----5----5-----3----|-2-----2-----2----2----2----0----|
D#|-------------------------------------|-------------------------------------|---------------------------------|

D#|-------------------------------------|-----------------------------|-------------------------------------|
A#|-------------------------------------|-----------------------------|-------------------------------------|
F#|-2----2----X----0----0----2-----X----|-4-----4-----4-----4----7----|-7----7----X----7----7----7-----5----|
C#|-2----2----X----0----0----2-----X----|-4-----4-----4-----4----7----|-7----7----X----7----7----7-----5----|
G#|-0----0----X----X----0----0-----X----|-2-----2-----2-----2----5----|-5----5----X----5----5----5-----3----|
D#|----------------3----3---------------|-----------------------------|-------------------------------------|

D#|-----------------------------|---------------------------------|---------------------------------|
A#|-----------------------------|---------------------------------|---------------------------------|
F#|-4-----4-----4-----X----2----|-2----2----X----0----0-----------|---------------------------------|
C#|-4-----4-----4-----X----2----|-2----2----X----0----0----X------|-7-----7-----7--------------2----|
G#|-2-----2-----2-----X----0----|-0----0----X----0----0----X------|-5-----5-----5----4----2----0----|
D#|-----------------------------|----------------3----3----X------|---------------------------------|

D#|---------------------------------|---------------------------------|-------------------------------------|
A#|---------------------------------|---------------------------------|-------------------------------------|
F#|---------------------------------|---------------------------------|-------------------------------------|
C#|-2-----2-----2-------------------|---------------------------------|----------------2----2----4-----X----|
G#|-0-----0-----0--------------2----|-2-----2-----2----2----3----4----|-4----4----X----2----2----4-----X----|
D#|------------------3----2----0----|-0-----0-----0----0----1----2----|-2----2----X----2----2----2-----X----|

D#|---------------------------------|---------------------------------|---------------------------------|
A#|---------------------------------|---------------------------------|---------------------------------|
F#|---------------------------------|---------------------------------|---------------------------------|
C#|-7-----7-----7--------------2----|-2-----2-----2-------------------|---------------------------------|
G#|-5-----5-----5----4----2----0----|-0-----0-----0--------------2----|-2-----2-----2----2----3----4----|
D#|---------------------------------|------------------3----2----0----|-0-----0-----0----0----1----2----|

D#|---------------------------------|---------------------------------|---------------------------------|
A#|---------------------------------|---------------------------------|---------------------------------|
F#|---------------------------------|---------------------------------|---------------------------------|
C#|---------------------------------|-7-----7-----7--------------2----|-2-----2-----2-------------------|
G#|-4----4-----2----2----4-----X----|-5-----5-----5----4----2----0----|-0-----0-----0--------------2----|
D#|-2----2-----2----2----2-----X----|---------------------------------|------------------3----2----0----|

D#|---------------------------------|---------------------------------|---------------------------------|
A#|---------------------------------|---------------------------------|---------------------------------|
F#|---------------------------------|---------------------------------|---------------------------------|
C#|---------------------------------|---------------------------------|-7-----7-----7--------------2----|
G#|-2-----2-----2----2----3----4----|-4----4-----2----2----4-----X----|-5-----5-----5----4----2----0----|
D#|-0-----0-----0----0----1----2----|-2----2-----2----2----2-----X----|---------------------------------|

D#|-----------------------------------------|-----------------------------------------|
A#|-----------------------------------------|-----------------------------------------|
F#|-----------------------------------------|-----------------------------------------|
C#|-2----2----2----2----2-------------------|-----------------------------------------|
G#|-0----0----0----0----0--------------2----|-2----2----2----2----2----2----3----4----|
D#|--------------------------3----2----0----|-0----0----0----0----0----0----1----2----|

D#|-----------------------------------------|-----------------------------------------|
A#|-----------------------------------------|-----------------------------------------|
F#|-----------------------------------------|-----------------------------------------|
C#|--------------------------4----4----4----|----------------2----0-------------------|
G#|-4----4----4----2----2----4----4----4----|--------------------------2--------------|
D#|-2----2----2----2----2----2----2----2----|-0----3----4-------------------3----0----|

D#|-------------------------------------|-----------------------------------------|
A#|-2-----0----2----2----0----2----0----|-----------------------------------------|
F#|-2-----0----2----2----0----2----0----|-----------------------------------------|
C#|-------------------------------------|----------------2----0-------------------|
G#|-------------------------------------|--------------------------2--------------|
D#|-------------------------------------|-0----3----4-------------------3----0----|

D#|------------------------|-----------------------------------------|-------------------------------------|
A#|-2-----0----2----2------|-----------------------------------------|-2-----0----2----2----0----2----0----|
F#|-2-----0----2----2------|-----------------------------------------|-2-----0----2----2----0----2----0----|
C#|------------------------|----------------2----0-------------------|-------------------------------------|
G#|------------------------|--------------------------2--------------|-------------------------------------|
D#|------------------------|-0----3----4-------------------3----0----|-------------------------------------|

D#|-----------------------------------------|------------------------|-----------------------------|
A#|-----------------------------------------|-2-----0----2----2------|-----------------------------|
F#|-----------------------------------------|-2-----0----2----2------|-4-----4-----4-----6----7----|
C#|----------------2----0-------------------|------------------------|-4-----4-----4-----6----7----|
G#|--------------------------2--------------|------------------------|-2-----2-----2-----4----5----|
D#|-0----3----4-------------------3----0----|------------------------|-----------------------------|

D#|-----------------------------------------|-----------------------------|---------------------------------|
A#|-----------------------------------------|-----------------------------|---------------------------------|
F#|-7----7----X----7----7----7----7----5----|-4-----4-----4-----X----2----|-2----2----2----0----0----2------|
C#|-7----7----X----7----7----7----7----5----|-4-----4-----4-----X----2----|-2----2----2----0----0----2------|
G#|-5----5----X----5----5----5----5----3----|-2-----2-----2-----X----0----|-0----0----0----X---------0------|
D#|-----------------------------------------|-----------------------------|----------------3----3-----------|

D#|-------------------------------------|-------------------------------------|---------------------------------|
A#|-------------------------------------|-------------------------------------|---------------------------------|
F#|-4-----4----4----4----4----6----7----|-7----7----X----7----7----7-----5----|-4-----4-----4----4----4----2----|
C#|-4-----4----4----4----4----6----7----|-7----7----X----7----7----7-----5----|-4-----4-----4----4----4----2----|
G#|-2-----2----2----2----2----4----5----|-5----5----X----5----5----5-----3----|-2-----2-----2----2----2----0----|
D#|-------------------------------------|-------------------------------------|---------------------------------|

D#|-------------------------------------|-------------------------------------|-------------------------------------|
A#|-------------------------------------|-------------------------------------|-------------------------------------|
F#|-2----2----X----0----0----2-----X----|-4-----4----4----4----4----6----7----|-7----7----X----7----7----7-----5----|
C#|-2----2----X----0----0----2-----X----|-4-----4----4----4----4----6----7----|-7----7----X----7----7----7-----5----|
G#|-0----0----X----X----0----0-----X----|-2-----2----2----2----2----4----5----|-5----5----X----5----5----5-----3----|
D#|----------------3----3---------------|-------------------------------------|-------------------------------------|

D#|---------------------------------|-------------------------------------|-----------------------------|
A#|---------------------------------|-------------------------------------|-----------------------------|
F#|-4-----4-----4----4----4----2----|-2----2----X----0----0----2-----X----|-4-----4-----4-----4----7----|
C#|-4-----4-----4----4----4----2----|-2----2----X----0----0----2-----X----|-4-----4-----4-----4----7----|
G#|-2-----2-----2----2----2----0----|-0----0----X----X----0----0-----X----|-2-----2-----2-----2----5----|
D#|---------------------------------|----------------3----3---------------|-----------------------------|

D#|-------------------------------------|-----------------------------|---------------------------------|
A#|-------------------------------------|-----------------------------|---------------------------------|
F#|-7----7----X----7----7----7-----5----|-4-----4-----4-----X----2----|-2----2----X----0----0----2------|
C#|-7----7----X----7----7----7-----5----|-4-----4-----4-----X----2----|-2----2----X----0----0----2------|
G#|-5----5----X----5----5----5-----3----|-2-----2-----2-----X----0----|-0----0----X----0----0----0------|
D#|-------------------------------------|-----------------------------|----------------3----3-----------|

D#|---------------------------------|---------------------------------|---------------------------------|
A#|---------------------------------|---------------------------------|---------------------------------|
F#|---------------------------------|---------------------------------|---------------------------------|
C#|-7-----7-----7--------------2----|-2-----2-----2-------------------|---------------------------------|
G#|-5-----5-----5----4----2----0----|-0-----0-----0--------------2----|-2-----2-----2----2----3----4----|
D#|---------------------------------|------------------3----2----0----|-0-----0-----0----0----1----2----|

D#|-------------------------------------|---------------------------------|---------------------------------|
A#|-------------------------------------|---------------------------------|---------------------------------|
F#|-------------------------------------|---------------------------------|---------------------------------|
C#|----------------2----2----4-----X----|-7-----7-----7--------------2----|-2-----2-----2-------------------|
G#|-4----4----X----2----2----4-----X----|-5-----5-----5----4----2----0----|-0-----0-----0--------------2----|
D#|-2----2----X----2----2----2-----X----|---------------------------------|------------------3----2----0----|

D#|---------------------------------|---------------------------------|---------------------------------|
A#|---------------------------------|---------------------------------|---------------------------------|
F#|---------------------------------|---------------------------------|---------------------------------|
C#|---------------------------------|---------------------------------|-7-----7-----7--------------2----|
G#|-2-----2-----2----2----3----4----|-4----4-----2----2----4-----X----|-5-----5-----5----4----2----0----|
D#|-0-----0-----0----0----1----2----|-2----2-----2----2----2-----X----|---------------------------------|

D#|---------------------------------|---------------------------------|---------------------------------|
A#|---------------------------------|---------------------------------|---------------------------------|
F#|---------------------------------|---------------------------------|---------------------------------|
C#|-2-----2-----2-------------------|---------------------------------|---------------------------------|
G#|-0-----0-----0--------------2----|-2-----2-----2----2----3----4----|-4----4-----2----2----4-----X----|
D#|------------------3----2----0----|-0-----0-----0----0----1----2----|-2----2-----2----2----2-----X----|

D#|---------------------------------|-----------------------------------------|-----------------------------------------|
A#|---------------------------------|-----------------------------------------|-----------------------------------------|
F#|---------------------------------|-----------------------------------------|-----------------------------------------|
C#|-7-----7-----7--------------2----|-2----2----2----2----2-------------------|-----------------------------------------|
G#|-5-----5-----5----4----2----0----|-0----0----0----0----0--------------2----|-2----2----2----2----2----2----3----4----|
D#|---------------------------------|--------------------------3----2----0----|-0----0----0----0----0----0----1----2----|

D#|-----------------------------------------|-------------------------------------|
A#|-----------------------------------------|-------------------------------------|
F#|-----------------------------------------|-------------------------------------|
C#|--------------------------4----4----4----|-4-----4----4----4----4----4----4----|
G#|-4----4----4----2----2----4----4----4----|-4-----4----4----4----4----4----4----|
D#|-2----2----2----2----2----2----2----2----|-2-----2----2----2----2----2----2----|

D#|-------------------------------------|-----------------------------------------|
A#|-------------------------------------|-----------------------------------------|
F#|-------------------------------------|-----------%---------%---------%---------|
C#|-4-----4----4----4----4----4----4----|-----------%---------%---------%---------|
G#|-4-----4----4----4----4----4----4----|-4----4---------5---------6---------7----|
D#|-2-----2----2----2----2----2----2----|-2----2---------3---------4---------5----|

D#|---------------------------------|-----------------------------------------|-----------------------------|
A#|---------------------------------|-----------------------------------------|-----------------------------|
F#|---------------------------------|-----------------------------------------|-----------------------------|
C#|-------9----9----7----9-----7----|-9----9----9----9----9----9----9----9----|-9-----9-----7----9-----7----|
G#|-7-----7----7----7----7-----7----|-7----7----7----7----7----7----7----7----|-7-----7-----7----7-----7----|
D#|-0-------------------------------|-----------------------------------------|-----------------------------|

D#|-----------------------------------------|-------------------------------------|
A#|-----------------------------------------|-------------------------------------|
F#|-----------------------------------------|-------6----6----4----6----6----4----|
C#|-9----9----9----X----9----8----7----6----|-6-----6----6----4----6----6----4----|
G#|-7----7----7----X----7----6----5----4----|-4-----4----4----4----4----4----4----|
D#|-----------------------------------------|-------------------------------------|

D#|-------------------------------------|-------------------------------------|-------------------------------------|
A#|-------------------------------------|-------------------------------------|-------------------------------------|
F#|-6-----4----6----6----6----6----4----|-6----6----6----6----4----6-----4----|-6-----4----6----6----6----6----4----|
C#|-6-----4----6----6----6----6----4----|-6----6----6----6----4----6-----4----|-6-----4----6----6----6----6----4----|
G#|-4-----4----4----4----4----4----4----|-4----4----4----4----4----4-----4----|-4-----4----4----4----4----4----4----|
D#|-------------------------------------|-------------------------------------|-------------------------------------|

D#|---------------------------------|-----------------------------------------|---------------------------------|
A#|---------------------------------|-----------------------------------------|---------------------------------|
F#|---------------------------------|-----------------------------------------|---------------------------------|
C#|-------9----9----7----9-----7----|-9----9----7----9----9----9----9----9----|-------9-----7----9----9----7----|
G#|-7-----7----7----7----7-----7----|-7----7----7----7----7----7----7----7----|-7-----7-----7----7----7----7----|
D#|-0-------------------------------|-----------------------------------------|-0-------------------------------|

D#|-----------------------------------------|-----------------------------|-------------------------------------|
A#|-----------------------------------------|-----------------------------|-------------------------------------|
F#|-----------------------------------------|-------6-----4----6-----4----|-6-----4----6----6----6----6----4----|
C#|-9----9----9----9----9----8----7----6----|-6-----6-----4----6-----4----|-6-----4----6----6----6----6----4----|
G#|-7----7----7----7----7----6----5----4----|-4-----4-----4----4-----4----|-4-----4----4----4----4----4----4----|
D#|-----------------------------------------|-----------------------------|-------------------------------------|

D#|-----------------------------|---------------------------------|---------|---------|
A#|-----------------------------|---------------------------------|---------|---------|
F#|-6-----6-----4----6-----6----|-6-----4----6----6----6----6-----|---------|---------|
C#|-6-----6-----4----6-----6----|-6-----4----6----6----6----6-----|-9-------|-7-------|
G#|-4-----4-----4----4-----4----|-4-----4----4----4----4----4-----|-9-------|-7-------|
D#|-----------------------------|---------------------------------|---------|---------|

D#|---------|--------------------|---------|--------------------|-----------------------------------------|
A#|---------|--------------------|---------|--------------------|-----------------------------------------|
F#|---------|--------------------|---------|--------------------|-----------------------------------------|
C#|-6-------|-4------6-----7-----|-9-------|-9------------------|----------------2----0-------------------|
G#|-6-------|-4------6-----7-----|-9-------|-9----12-----12-----|--------------------------2--------------|
D#|---------|--------------------|---------|------12-----12-----|-0----3----4-------------------3----0----|

D#|-------------------------------------|-----------------------------------------|
A#|-2-----0----2----2----0----2----0----|-----------------------------------------|
F#|-2-----0----2----2----0----2----0----|-----------------------------------------|
C#|-------------------------------------|----------------2----0-------------------|
G#|-------------------------------------|--------------------------2--------------|
D#|-------------------------------------|-0----3----4-------------------3----0----|

D#|------------------------|-----------------------------------------|-------------------------------------|
A#|-2-----0----2----2------|-----------------------------------------|-2-----0----2----2----0----2----0----|
F#|-2-----0----2----2------|-----------------------------------------|-2-----0----2----2----0----2----0----|
C#|------------------------|----------------2----0-------------------|-------------------------------------|
G#|------------------------|--------------------------2--------------|-------------------------------------|
D#|------------------------|-0----3----4-------------------3----0----|-------------------------------------|

D#|-----------------------------------------|------------------------|-------------------------|
A#|-----------------------------------------|-2-----0----2----2------|-------------------------|
F#|-----------------------------------------|-2-----0----2----2------|-------------------------|
C#|----------------2----0-------------------|------------------------|-2------3----3-----4-----|
G#|--------------------------2--------------|------------------------|-2------3----3-----4-----|
D#|-0----3----4-------------------3----0----|------------------------|-0------1----1-----2-----|

D#|-------------------------|-------------------------|---------|-----------------------------|
A#|-------------------------|-------------------------|---------|-----------------------------|
F#|-------------------------|-0-----0-----0------2----|-2-------|-------9-----7----9-----7----|
C#|-4----3------4------X----|-0-----0-----0------2----|-2-------|-------9-----7----9-----7----|
G#|-4----3------4------X----|-X-----X-----X------0----|-0-------|-------7-----7----7-----7----|
D#|-2----1------2------X----|-3-----3-----3-----------|---------|-0---------------------------|

D#|---------------------------------|-------------------------|--------------------|
A#|---------------------------------|-------------------------|--------------------|
F#|-9-----9-----9----9----9----9----|-0-----0-----0------2----|-2------2----2------|
C#|-9-----9-----9----9----9----9----|-0-----0-----0------2----|-2------2----2------|
G#|-7-----7-----7----7----7----7----|-X-----X-----X------0----|-0------0----0------|
D#|---------------------------------|-3-----3-----3-----------|--------------------|

D#|-----------------------------|-----------------------------|-------------------------|
A#|-----------------------------|-----------------------------|-------------------------|
F#|-------9-----7----9-----7----|-9-----9----9----9----9------|-0-----0-----0------2----|
C#|-------9-----7----9-----7----|-9-----9----9----9----9------|-0-----0-----0------2----|
G#|-------7-----7----7-----7----|-7-----7----7----7----7------|-X-----X-----X------0----|
D#|-0---------------------------|-----------------------------|-3-----3-----3-----------|

D#|-----------------------------------------|-----------------------------|---------------------------------|
A#|-----------------------------------------|-----------------------------|---------------------------------|
F#|-2----2----2----2----2----2----2----2----|-------9-----7----9-----7----|-9-----7----9----9----7----9-----|
C#|-2----2----2----2----2----2----2----2----|-------9-----7----9-----7----|-9-----7----9----9----7----9-----|
G#|-0----0----0----0----0----0----0----0----|-------7-----7----7-----7----|-7-----7----7----7----7----7-----|
D#|-----------------------------------------|-0---------------------------|---------------------------------|

D#|-----------------------------|-------------------------------------|-------------------------|
A#|------------------------2----|-2----2----2----2----2----2----2-----|-------------------------|
F#|-0-----0-----0-----0----2----|-2----2----2----2----2----2----2-----|-9-----9-----9-----9-----|
C#|-0-----0-----0-----0----2----|-2----2----2----2----2----2----2-----|-9-----9-----9-----9-----|
G#|-X-----X-----X-----X----0----|-0----0----0----0----0----0----0-----|-7-----7-----7-----7-----|
D#|-3-----3-----3-----3---------|-------------------------------------|-------------------------|

D#|-------------------------|---------|
A#|-------------------------|---------|
F#|-9-----9-----9-----9-----|-9-------|
C#|-9-----9-----9-----9-----|-9-------|
G#|-7-----7-----7-----7-----|-7-------|
D#|-------------------------|---------|
Guns N' Roses - Right Next Door To Hell
Guns N' Roses - Right Next Door To Hell.gp4