Guns N' Roses - Rocket Queen (2)

Guns N' Roses - Rocket Queen (2)

Guns N Roses



Title: Rocket Queen
Album: 
Artist: 
Author: Guns n' Roses

Track 1: Lead Guitar
D#|---------|------------------------|---------|-------------------|------------------------|
A#|---------|------------------------|---------|-------------------|------------------------|
F#|-%-------|-%------%-----%----11---|-11------|-11------11---11---|-11---11---%-----%------|
C#|-%-------|-%------%-----%----11---|-11------|-11------11---11---|-11---11---%-----%------|
G#|---------|-------------------9----|-9-------|-9-------9----9----|-9----9-----------------|
D#|---------|------------------------|---------|-------------------|------------------------|

D#|---------------------------------|--------------------|----------------------------|
A#|---------------------------------|--------------------|----------------------------|
F#|---------------------------------|-4------6----6------|-9------8----4----4----6----|
C#|-4-----2----4----2----4----2-----|-2------4----4------|-7------6----2----2----4----|
G#|---------------------------------|--------------------|----------------------------|
D#|---------------------------------|--------------------|----------------------------|

D#|---------|-------------------|-------------------|--------------------|------------------------------------------------------------------|
A#|---------|-------------------|-------------------|--------------------|------------------------------------------------------------------|
F#|-6-------|-6-------6----11---|-11------11---11---|-11----11----%------|-4----%---4---4---4---%---4---%---4---%---4---4---4---2-----------|
C#|-4-------|-4-------4----11---|-11------11---11---|-11----11----%------|------%---------------%-------%-------%-------------------2---3---|
G#|---------|--------------9----|-9-------9----9----|-9-----9------------|------------------------------------------------------------------|
D#|---------|-------------------|-------------------|--------------------|------------------------------------------------------------------|

D#|------------------------|----------------------------|-------------------------|
A#|------------------------|----------------------------|-------------------------|
F#|------------------------|----------------------------|-------------------------|
C#|-4-----4-----6---6------|-7------6----2----2----4----|-4------2----2------1----|
G#|------------------------|----------------------------|-------------------------|
D#|------------------------|----------------------------|-------------------------|

D#|--------------------|--------------------------------------------------------|--------------------------------------------------------|
A#|--------------------|--------------------------------------------------------|--------------------------------------------------------|
F#|--------------------|--------------------------------------------------------|--------------------------------------------------------|
C#|-1------0-----------|--------------------------------------------------------|--------------------------------------------------------|
G#|--------------------|-----------1----------------------------0---1---0---1---|-----------1----------------------------0---1---0---1---|
D#|--------------10----|-0----2---------2---0---0---0---2---2-------------------|-0----2---------2---0---0---0---2---2-------------------|

D#|--------------------------------------------------------|----------------------------------------|
A#|--------------------------------------------------------|----------------------------------------|
F#|--------------------------------------------------------|---------------------------------%------|
C#|--------------------------------------------------------|---------------------------------%------|
G#|-----------1----------------------------0---1---0---1---|-----------------0---1------------------|
D#|-0----2---------2---0---0---0---2---2-------------------|-0---0---2---2-----------2---0----------|

D#|-----------------------------------------------|---------------------------------------|
A#|-----------------------------------------------|---------------------------------------|
F#|-4-----4----4---2---2---2-----------------%----|-4----4---2---2--------2---2------2----|
C#|----------------------------4----4---4----%----|-------------------4-------------------|
G#|-----------------------------------------------|---------------------------------------|
D#|-----------------------------------------------|---------------------------------------|

D#|-----------------------------------------------------|--------------------------------------------------|
A#|-----------------------------------------------------|------4-------------------------------------------|
F#|-%----4----4---4---2---2---2-------------------------|-4---------4---4---2---2---2--------2---2---3-----|
C#|-%-----------------------------4----2---2----3---4---|-------------------------------4------------------|
G#|-----------------------------------------------------|--------------------------------------------------|
D#|-----------------------------------------------------|--------------------------------------------------|

D#|---------------------------------------|--------------------------------------------------------|
A#|-4-------------------6-----------------|-----------------------------------6---------------4----|
F#|-4------%----6---6-------6---6----4----|-X---X---4----4----X---6---6---6-------6---6---4---4----|
C#|-4------%------------------------------|--------------------------------------------------------|
G#|---------------------------------------|--------------------------------------------------------|
D#|---------------------------------------|--------------------------------------------------------|

D#|----------------------------4--------------------|--------------------------------------------------------|
A#|-6-----6----X---X---4---4-------4---4------------|-5---5---5---5---5---5---5---5---5----------------------|
F#|-6-----6----X---X-----------------------6---6----|-4---4---4---4---4---4---4---4---4----X---X---4---2-----|
C#|-------------------------------------------------|----------------------------------------------4---2-----|
G#|-------------------------------------------------|----------------------------------------------2---0-----|
D#|-------------------------------------------------|--------------------------------------------------------|

D#|-------------------------------------------------|----------------------------------------------------|
A#|-11----11--X---X---12--12--11--X---X-------------|--------------9---9---9---10--10--9-----------------|
F#|-11----11--X---X---11--11--11--X---X-------------|--------------9---9---9---9---9---9-----------9-----|
C#|-11----11--X---X---11--11--11--X---X---11--13----|-9----X---X---9---9---9---9---9---9---X---X---9-----|
G#|-9-----9-----------9---9---9-----------9---11----|-7----X---X---7---7---7---7---7---7---X---X---7-----|
D#|-------------------------------------------------|----------------------------------------------------|

D#|---------------------------------|--------------------------------------------------------|
A#|---------------------------------|--------------------------------------------------------|
F#|------2--------2-----4-----------|-%---------9---9-------9---9---11--%---9----------------|
C#|------2--------2-----4-----2-----|-%----11---9---9---11--9---9---11--%---9---10--9---7----|
G#|-0---------0---------2-----2-----|------11-----------11----------------------10--9---7----|
D#|---------------------------0-----|--------------------------------------------------------|

D#|-------------------------------------------------|----------------------------------------------------|
A#|-11----11--X---X---12--12--11--X---X-------------|--------------9---9---9---10--10--9-----------------|
F#|-11----11--X---X---11--11--11--X---X-------------|--------------9---9---9---9---9---9-----------9-----|
C#|-11----11--X---X---11--11--11--X---X---11--13----|-9----X---X---9---9---9---9---9---9---X---X---9-----|
G#|-9-----9-----------9---9---9-----------9---11----|-7----X---X---7---7---7---7---7---7---X---X---7-----|
D#|-------------------------------------------------|----------------------------------------------------|

D#|---------------------------------|-------------------------------------------|-------------------------------------------------|
A#|---------------------------------|-------------------------------------------|-------------------------------------------------|
F#|------2--------2-----4-----------|-9---------9--------9---9---11---9---9-----|-----------------------------%-------------------|
C#|------2--------2-----4-----2-----|-9----11---9----11--9---9---11---9---9-----|-4---2-----------------------%-------------------|
G#|-0---------0---------2-----2-----|------11--------11-------------------------|---------4---3---2---0-----------3---2---0-------|
D#|---------------------------0-----|-------------------------------------------|-------------------------2-------------------0---|

D#|--------------------|--------------------------------------------------------|--------------------------------------------------------|
A#|--------------------|--------------------------------------------------------|--------------------------------------------------------|
F#|--------------------|--------------------------------------------------------|--------------------------------------------------------|
C#|--------------------|--------------------------------------------------------|--------------------------------------------------------|
G#|--------------------|-----------1----------------------------0---1---0---1---|-----------1----------------------------0---1---0---1---|
D#|-0------1-----1-----|-0----2---------2---0---0---0---2---2-------------------|-0----2---------2---0---0---0---2---2-------------------|

D#|--------------------------------------------------------|----------------------------------------|
A#|--------------------------------------------------------|----------------------------------------|
F#|--------------------------------------------------------|---------------------------------%------|
C#|--------------------------------------------------------|---------------------------------%------|
G#|-----------1----------------------------0---1---0---1---|-----------------0---1------------------|
D#|-0----2---------2---0---0---0---2---2-------------------|-0---0---2---2-----------2---0----------|

D#|-----------------------------------------------|---------------------------------------|
A#|-----------------------------------------------|---------------------------------------|
F#|-4-----4----4---2---2---2-----------------%----|-4----4---2---2--------2---2------2----|
C#|----------------------------4----4---4----%----|-------------------4-------------------|
G#|-----------------------------------------------|---------------------------------------|
D#|-----------------------------------------------|---------------------------------------|

D#|----------------------------------------------------|--------------------------------------------------|
A#|----------------------------------------------------|------4-------------------------------------------|
F#|-%----4----4---4---2---2---2------------------------|-4---------4---4---2---2---2--------2---2---3-----|
C#|-%-----------------------------4----2---2----3---4--|-------------------------------4------------------|
G#|----------------------------------------------------|--------------------------------------------------|
D#|----------------------------------------------------|--------------------------------------------------|

D#|---------------------------------------|--------------------------------------------------------|
A#|-4-------------------6-----------------|-----------------------------------6---------------4----|
F#|-4------%----6---6-------6---6----4----|-X---X---4----4----X---6---6---6-------6---6---4---4----|
C#|-4------%------------------------------|--------------------------------------------------------|
G#|---------------------------------------|--------------------------------------------------------|
D#|---------------------------------------|--------------------------------------------------------|

D#|----------------------------4--------------------|--------------------------------------------------------|
A#|-6-----6----X---X---4---4-------4---4------------|-5---5---5---5---5---5---5---5---5----------------------|
F#|-6-----6----X---X-----------------------6---6----|-4---4---4---4---4---4---4---4---4----X---X---4---2-----|
C#|-------------------------------------------------|----------------------------------------------4---2-----|
G#|-------------------------------------------------|----------------------------------------------2---0-----|
D#|-------------------------------------------------|--------------------------------------------------------|

D#|-------------------------------------------------|----------------------------------------------------|
A#|-11----11--X---X---12--12--11--X---X-------------|--------------9---9---9---10--10--9-----------------|
F#|-11----11--X---X---11--11--11--X---X-------------|--------------9---9---9---9---9---9-----------9-----|
C#|-11----11--X---X---11--11--11--X---X---11--13----|-9----X---X---9---9---9---9---9---9---X---X---9-----|
G#|-9-----9-----------9---9---9-----------9---11----|-7----X---X---7---7---7---7---7---7---X---X---7-----|
D#|-------------------------------------------------|----------------------------------------------------|

D#|---------------------------------|--------------------------------------------------------|
A#|---------------------------------|--------------------------------------------------------|
F#|------2--------2-----4-----------|-%---------9---9-------9---9---11--%---9----------------|
C#|------2--------2-----4-----2-----|-%----11---9---9---11--9---9---11--%---9---10--9---7----|
G#|-0---------0---------2-----2-----|------11-----------11----------------------10--9---7----|
D#|---------------------------0-----|--------------------------------------------------------|

D#|-------------------------------------------------|----------------------------------------------------|
A#|-11----11--X---X---12--12--11--X---X-------------|--------------9---9---9---10--10--9-----------------|
F#|-11----11--X---X---11--11--11--X---X-------------|--------------9---9---9---9---9---9-----------9-----|
C#|-11----11--X---X---11--11--11--X---X---11--13----|-9----X---X---9---9---9---9---9---9---X---X---9-----|
G#|-9-----9-----------9---9---9-----------9---11----|-7----X---X---7---7---7---7---7---7---X---X---7-----|
D#|-------------------------------------------------|----------------------------------------------------|

D#|---------------------------------|-------------------------------------------|-------------------------------------------------|
A#|---------------------------------|-------------------------------------------|-------------------------------------------------|
F#|------2--------2-----4-----------|-9---------9--------9---9---11---9---9-----|-----------------------------%-------------------|
C#|------2--------2-----4-----2-----|-9----11---9----11--9---9---11---9---9-----|-4---2-----------------------%-------------------|
G#|-0---------0---------2-----2-----|------11--------11-------------------------|---------4---3---2---0-----------3---2---0-------|
D#|---------------------------0-----|-------------------------------------------|-------------------------2-------------------0---|

D#|--------------------|--------------------------------------------------------|--------------------------------------------------------|
A#|--------------------|--------------------------------------------------------|--------------------------------------------------------|
F#|--------------------|--------------------------------------------------------|--------------------------------------------------------|
C#|--------------------|--------------------------------------------------------|--------------------------------------------------------|
G#|--------------------|-----------1----------------------------0---1---0---1---|-----------1----------------------------0---1---0---1---|
D#|-0------1-----1-----|-0----2---------2---0---0---0---2---2-------------------|-0----2---------2---0---0---0---2---2-------------------|

D#|--------------------------------------------------------|----------------------------------------|
A#|--------------------------------------------------------|----------------------------------------|
F#|--------------------------------------------------------|---------------------------------%------|
C#|--------------------------------------------------------|---------------------------------%------|
G#|-----------1----------------------------0---1---0---1---|-----------------0---1------------------|
D#|-0----2---------2---0---0---0---2---2-------------------|-0---0---2---2-----------2---0----------|

D#|-----------------------------------------------------------|-----------------------------------------------------------|
A#|-----------------------------------------------------------|-----------------------------------------------------------|
F#|-----------------------------------------------------------|-----------------------------------------------------------|
C#|-----------------------------------------------------------|-----------------------------------------------------------|
G#|-----------0---1---------------------------0---1---0---1---|-----------0---1---------------------------0---1---0---1---|
D#|-0----2------------2---0---0---0---2---2-------------------|-0----2------------2---0---0---0---2---2-------------------|

D#|-----------------------------------------------------------|-----------------------------------------------------------|
A#|-----------------------------------------------------------|-----------------------------------------------------------|
F#|-----------------------------------------------------------|-----------------------------------------------------------|
C#|-----------------------------------------------------------|-----------------------------------------------------------|
G#|-----------0---1---------------------------0---1---0---1---|-----------0---1---------------------------0---1---0---1---|
D#|-0----2------------2---0---0---0---2---2-------------------|-0----2------------2---0---0---0---2---2-------------------|

D#|-----------------------------------------------------------|-----------------------------------------------------------|
A#|-----------------------------------------------------------|-----------------------------------------------------------|
F#|-----------------------------------------------------------|-----------------------------------------------------------|
C#|-----------------------------------------------------------|-----------------------------------------------------------|
G#|-----------0---1---------------------------0---1---0---1---|-----------0---1---------------------------0---1---0---1---|
D#|-0----2------------2---0---0---0---2---2-------------------|-0----2------------2---0---0---0---2---2-------------------|

D#|-----------------------------------------------------------|-----------------------------------------------------------|
A#|-----------------------------------------------------------|-----------------------------------------------------------|
F#|-----------------------------------------------------------|-----------------------------------------------------------|
C#|-----------------------------------------------------------|-----------------------------------------------------------|
G#|-----------0---1---------------------------0---1---0---1---|-----------0---1---------------------------0---1---0---1---|
D#|-0----2------------2---0---0---0---2---2-------------------|-0----2------------2---0---0---0---2---2-------------------|

D#|-----------------------------------------------------------|-----------------------------------------------------------|
A#|-----------------------------------------------------------|-----------------------------------------------------------|
F#|-----------------------------------------------------------|-----------------------------------------------------------|
C#|-----------------------------------------------------------|-----------------------------------------------------------|
G#|-----------0---1---------------------------0---1---0---1---|-----------0---1---------------------------0---1---0---1---|
D#|-0----2------------2---0---0---0---2---2-------------------|-0----2------------2---0---0---0---2---2-------------------|

D#|-----------------------------------------------------------|-----------------------------------------------------------|
A#|-----------------------------------------------------------|-----------------------------------------------------------|
F#|-----------------------------------------------------------|-----------------------------------------------------------|
C#|-----------------------------------------------------------|-----------------------------------------------------------|
G#|-----------0---1---------------------------0---1---0---1---|-----------0---1---------------------------0---1---0---1---|
D#|-0----2------------2---0---0---0---2---2-------------------|-0----2------------2---0---0---0---2---2-------------------|

D#|-----------------------------------------------------------|----------------------------------|
A#|-----------------------------------------------------------|----------------------------------|
F#|-----------------------------------------------------------|---------------------------%------|
C#|-----------------------------------------------------------|---------------------------%------|
G#|-----------0---1---------------------------0---1---0---1---|-----------0---1------------------|
D#|-0----2------------2---0---0---0---2---2-------------------|-0----2------------2---0----------|

D#|-----------------------------------------------------------|-----------------------------------------------------------|
A#|-----------------------------------------------------------|-----------------------------------------------------------|
F#|-----------------------------------------------------------|-----------------------------------------------------------|
C#|-----------------------------------------------------------|-----------------------------------------------------------|
G#|-----------3---4---------------------------3---4---3---4---|-----------3---4---------------------------3---4---3---4---|
D#|-3----5------------3---0---0---0---3---3-------------------|-3----5------------3---0---0---0---3---3-------------------|

D#|-----------------------------------------------------------|-----------------------------------------------------------|
A#|-----------------------------------------------------------|-----------------------------------------------------------|
F#|-----------------------------------------------------------|-----------------------------------------------------------|
C#|-----------------------------------------------------------|-----------------------------------------------------------|
G#|-----------5---6---------------------------5---6---5---6---|-----------5---6---------------------------5---6---5---6---|
D#|-5----7------------5---7---5---5---7---7-------------------|-5----7------------5---7---5---5---7---7-------------------|

D#|-----------------------------------------------------------|-----------------------------------------------------------|
A#|-----------------------------------------------------------|-----------------------------------------------------------|
F#|-----------------------------------------------------------|-----------------------------------------------------------|
C#|-----------2---3-----------------------------------2---3---|-----------2---3-----------------------------------2---3---|
G#|-2----4------------4-----------------------2---4-----------|-2----4------------4-----------------------2---4-----------|
D#|-----------------------0---0---2---3---4-------------------|-----------------------0---0---2---3---4-------------------|

D#|-----------------------------------------------------------|-----------------------------------------------------|
A#|-----------------------------------------------------------|-----------------------------------------------------|
F#|-----------------------------------------------------------|-----------------------------------------------------|
C#|-----------2---3-----------------------------------2---3---|-----------2---3-------------------------------------|
G#|-2----4------------4-----------------------2---4-----------|-2----4------------4-----------------------2---0-----|
D#|-----------------------0---0---2---3---4-------------------|-----------------------0---0---2---3---4-------------|

D#|-------------------------------------------------|----------------------------------------------------|
A#|-11----11--X---X---12--12--11--X---X-------------|--------------9---9---9---10--10--9-----------------|
F#|-11----11--X---X---11--11--11--X---X-------------|--------------9---9---9---9---9---9-----------9-----|
C#|-11----11--X---X---11--11--11--X---X---11--13----|-9----X---X---9---9---9---9---9---9---X---X---9-----|
G#|-9-----9-----------9---9---9-----------9---11----|-7----X---X---7---7---7---7---7---7---X---X---7-----|
D#|-------------------------------------------------|----------------------------------------------------|

D#|---------------------------------|--------------------------------------------------------|
A#|---------------------------------|--------------------------------------------------------|
F#|------2--------2-----4-----------|-%---------9---9-------9---9---11--%---9----------------|
C#|------2--------2-----4-----2-----|-%----11---9---9---11--9---9---11--%---9---10--9---7----|
G#|-0---------0---------2-----2-----|------11-----------11----------------------10--9---7----|
D#|---------------------------0-----|--------------------------------------------------------|

D#|-------------------------------------------------|----------------------------------------------------|
A#|-11----11--X---X---12--12--11--X---X-------------|--------------9---9---9---10--10--9-----------------|
F#|-11----11--X---X---11--11--11--X---X-------------|--------------9---9---9---9---9---9-----------9-----|
C#|-11----11--X---X---11--11--11--X---X---11--13----|-9----X---X---9---9---9---9---9---9---X---X---9-----|
G#|-9-----9-----------9---9---9-----------9---11----|-7----X---X---7---7---7---7---7---7---X---X---7-----|
D#|-------------------------------------------------|----------------------------------------------------|

D#|---------------------------------|-------------------------------------------|-------------------------------------------------|
A#|---------------------------------|-------------------------------------------|-------------------------------------------------|
F#|------2--------2-----4-----------|-9---------9--------9---9---11---9---9-----|-----------------------------%-------------------|
C#|------2--------2-----4-----2-----|-9----11---9----11--9---9---11---9---9-----|-4---2-----------------------%-------------------|
G#|-0---------0---------2-----2-----|------11--------11-------------------------|---------4---3---2---0-----------3---2---0-------|
D#|---------------------------0-----|-------------------------------------------|-------------------------2-------------------0---|

D#|--------------------|-----------------------------------------|-----------------------------------------|
A#|--------------------|-----------------------------------------|-----------------------------------------|
F#|--------------------|-----------------------------------------|-----------------------------------------|
C#|--------------------|-4----4----4----4----4----4----4----4----|-4----4----4----4----4----4----4----4----|
G#|--------------------|-4----4----4----4----4----4----4----4----|-4----4----4----4----4----4----4----4----|
D#|-0------1-----1-----|-2----2----2----2----2----2----2----2----|-2----2----2----2----2----2----2----2----|

D#|-------------------------------------|---------------------------------------------|
A#|-------------------------------------|---------------------------------------------|
F#|-----------9-----%----4----%----6----|-6-----6-------------------------------------|
C#|-----------9-----%----4----%----6----|-6-----6-------------------------------------|
G#|-----------7----------2---------4----|-4-----4-------------2---4---4---4-----------|
D#|-0----0------------------------------|-------------3---4-------------------3---4---|

D#|-------------------------------------|-----------------------------------------|
A#|-------------------------------------|-----------------------------------------|
F#|-----------9-----%----2----%----4----|-4---------------------------------------|
C#|-----------9-----%----2----%----4----|-4---------------------------------------|
G#|-----------7----------0---------2----|-2----2----4----4----4----2--------------|
D#|-0----0------------------------------|-------------------------------2----2----|

D#|-------------------------------------|---------------------------------|-------------------------------------|
A#|-------------------------------------|---------------------------------|-------------------------------------|
F#|-----------9-----%----4----%----6----|-6--------------------------9----|-9-----9----9-------------------4----|
C#|-----------9-----%----4----%----6----|-6--------------------------9----|-9-----9----9-------------------4----|
G#|-----------7----------2---------4----|-4--------------------------7----|-7-----7----7-------------------2----|
D#|-0----0------------------------------|--------0----2----2----0---------|-----------------2----2----0---------|

D#|-----------------------------------------------------|------0-------------------0--------------|
A#|-----------------------------------------------------|-----------9-------------------7---------|
F#|-4----4----4---4---4---4---4----4----4---4---4---4---|-9--------------9----8--------------6----|
C#|-4----4----4---4---4---4---4----4----4---4---4---4---|-----------------------------------------|
G#|-2----2----2---2---2---2---2----2----2---2---2---2---|-----------------------------------------|
D#|-----------------------------------------------------|-----------------------------------------|

D#|------0--------------0-------------------|------0-------------------0--------------|
A#|-----------5--------------5---------0----|-----------9-------------------7---------|
F#|-6--------------6--------------6---------|-9--------------9----8--------------8----|
C#|-----------------------------------------|-----------------------------------------|
G#|-----------------------------------------|-----------------------------------------|
D#|-----------------------------------------|-----------------------------------------|

D#|------0--------------0-------------------|------0-------------------0--------------|
A#|-----------7--------------5---------7----|-----------9-------------------7---------|
F#|-8--------------8--------------6---------|-9--------------9----8--------------6----|
C#|-----------------------------------------|-----------------------------------------|
G#|-----------------------------------------|-----------------------------------------|
D#|-----------------------------------------|-----------------------------------------|

D#|-----------0--------------0--------------|------0-------------------0--------------|
A#|------5------------------------0---------|-----------9-------------------7---------|
F#|-6--------------6----4--------------6----|-9--------------9----8--------------4----|
C#|-----------------------------------------|-----------------------------------------|
G#|-----------------------------------------|-----------------------------------------|
D#|-----------------------------------------|-----------------------------------------|

D#|------0--------------0----0--------------|------0-------------------0--------------|
A#|----------------4--------------4---------|-----------9-------------------7---------|
F#|-4---------4------------------------4----|-9--------------9----8--------------6----|
C#|-----------------------------------------|-----------------------------------------|
G#|-----------------------------------------|-----------------------------------------|
D#|-----------------------------------------|-----------------------------------------|

D#|------0--------------0-------------------|------0-------------------0--------------|
A#|-----------5--------------5---------0----|-----------9-------------------7---------|
F#|-6--------------6--------------6---------|-9--------------9----8--------------8----|
C#|-----------------------------------------|-----------------------------------------|
G#|-----------------------------------------|-----------------------------------------|
D#|-----------------------------------------|-----------------------------------------|

D#|------0--------------0-------------------|------0-------------------0--------------|
A#|-----------7--------------5---------7----|-----------9-------------------7---------|
F#|-8--------------8--------------6---------|-9--------------9----8--------------6----|
C#|-----------------------------------------|-----------------------------------------|
G#|-----------------------------------------|-----------------------------------------|
D#|-----------------------------------------|-----------------------------------------|

D#|-----------0--------------0--------------|------0-------------------0--------------|
A#|------5------------------------0---------|-----------9-------------------7---------|
F#|-6--------------6----4--------------6----|-9--------------9----8--------------4----|
C#|-----------------------------------------|-----------------------------------------|
G#|-----------------------------------------|-----------------------------------------|
D#|-----------------------------------------|-----------------------------------------|

D#|------0--------------0----0--------------|------0-------------------0--------------|
A#|----------------4--------------4---------|-----------9-------------------7---------|
F#|-4---------4------------------------4----|-9--------------9----8--------------6----|
C#|-----------------------------------------|-----------------------------------------|
G#|-----------------------------------------|-----------------------------------------|
D#|-----------------------------------------|-----------------------------------------|

D#|------0--------------0-------------------|------0-------------------0--------------|
A#|-----------5--------------5---------0----|-----------9-------------------7---------|
F#|-6--------------6--------------6---------|-9--------------9----8--------------8----|
C#|-----------------------------------------|-----------------------------------------|
G#|-----------------------------------------|-----------------------------------------|
D#|-----------------------------------------|-----------------------------------------|

D#|------0--------------0-------------------|------0-------------------0--------------|
A#|-----------7--------------5---------7----|-----------9-------------------7---------|
F#|-8--------------8--------------6---------|-9--------------9----8--------------6----|
C#|-----------------------------------------|-----------------------------------------|
G#|-----------------------------------------|-----------------------------------------|
D#|-----------------------------------------|-----------------------------------------|

D#|-----------0--------------0--------------|------0-------------------0--------------|
A#|------5------------------------0---------|-----------9-------------------7---------|
F#|-6--------------6----4--------------6----|-9--------------9----8--------------4----|
C#|-----------------------------------------|-----------------------------------------|
G#|-----------------------------------------|-----------------------------------------|
D#|-----------------------------------------|-----------------------------------------|

D#|------0--------------0----0--------------|------0-------------------0--------------|
A#|----------------4--------------4---------|-----------9-------------------7---------|
F#|-4---------4------------------------4----|-9--------------9----8--------------6----|
C#|-----------------------------------------|-----------------------------------------|
G#|-----------------------------------------|-----------------------------------------|
D#|-----------------------------------------|-----------------------------------------|

D#|------0--------------0-------------------|------0-------------------0--------------|
A#|-----------5--------------5---------0----|-----------9-------------------7---------|
F#|-6--------------6--------------6---------|-9--------------9----8--------------8----|
C#|-----------------------------------------|-----------------------------------------|
G#|-----------------------------------------|-----------------------------------------|
D#|-----------------------------------------|-----------------------------------------|

D#|------0--------------0-------------------|------0-------------------0--------------|
A#|-----------7--------------5---------7----|-----------9-------------------7---------|
F#|-8--------------8--------------6---------|-9--------------9----8--------------6----|
C#|-----------------------------------------|-----------------------------------------|
G#|-----------------------------------------|-----------------------------------------|
D#|-----------------------------------------|-----------------------------------------|

D#|-----------0--------------0--------------|------0-------------------0--------------|
A#|------5------------------------0---------|-----------9-------------------7---------|
F#|-6--------------6----4--------------6----|-9--------------9----8--------------4----|
C#|-----------------------------------------|-----------------------------------------|
G#|-----------------------------------------|-----------------------------------------|
D#|-----------------------------------------|-----------------------------------------|

D#|------0--------------0----0--------------|------0-------------------0--------------|
A#|----------------4--------------4---------|-----------9-------------------7---------|
F#|-4---------4------------------------4----|-9--------------9----8--------------6----|
C#|-----------------------------------------|-----------------------------------------|
G#|-----------------------------------------|-----------------------------------------|
D#|-----------------------------------------|-----------------------------------------|

D#|------0--------------0-------------------|------0-------------------0--------------|
A#|-----------5--------------5---------0----|-----------9-------------------7---------|
F#|-6--------------6--------------6---------|-9--------------9----8--------------8----|
C#|-----------------------------------------|-----------------------------------------|
G#|-----------------------------------------|-----------------------------------------|
D#|-----------------------------------------|-----------------------------------------|

D#|------0--------------0-------------------|------0-------------------0--------------|
A#|-----------7--------------5---------7----|-----------9-------------------7---------|
F#|-8--------------8--------------6---------|-9--------------9----8--------------6----|
C#|-----------------------------------------|-----------------------------------------|
G#|-----------------------------------------|-----------------------------------------|
D#|-----------------------------------------|-----------------------------------------|

D#|-----------0--------------0--------------|------0-------------------0--------------|
A#|------5------------------------0---------|-----------9-------------------7---------|
F#|-6--------------6----4--------------6----|-9--------------9----8--------------4----|
C#|-----------------------------------------|-----------------------------------------|
G#|-----------------------------------------|-----------------------------------------|
D#|-----------------------------------------|-----------------------------------------|

D#|------0--------------0----0--------------|------0-------------------0--------------|
A#|----------------4--------------4---------|-----------9-------------------7---------|
F#|-4---------4------------------------4----|-9--------------9----8--------------6----|
C#|-----------------------------------------|-----------------------------------------|
G#|-----------------------------------------|-----------------------------------------|
D#|-----------------------------------------|-----------------------------------------|

D#|------0--------------0-------------------|------0-------------------0--------------|
A#|-----------5--------------5---------0----|-----------9-------------------7---------|
F#|-6--------------6--------------6---------|-9--------------9----8--------------4----|
C#|-----------------------------------------|-----------------------------------------|
G#|-----------------------------------------|-----------------------------------------|
D#|-----------------------------------------|-----------------------------------------|

D#|------0--------------0----0--------------|------0-------------------0--------------|
A#|----------------4--------------4---------|-----------9-------------------7---------|
F#|-4---------4------------------------4----|-9--------------9----8--------------6----|
C#|-----------------------------------------|-----------------------------------------|
G#|-----------------------------------------|-----------------------------------------|
D#|-----------------------------------------|-----------------------------------------|

D#|------0--------------0-------------------|------0-------------------0--------------|
A#|-----------5--------------5---------0----|-----------9-------------------7---------|
F#|-6--------------6--------------6---------|-9--------------9----8--------------8----|
C#|-----------------------------------------|-----------------------------------------|
G#|-----------------------------------------|-----------------------------------------|
D#|-----------------------------------------|-----------------------------------------|

D#|------0--------------0-------------------|------0-------------------0--------------|
A#|-----------7--------------5---------7----|-----------9-------------------7---------|
F#|-8--------------8--------------6---------|-9--------------9----8--------------6----|
C#|-----------------------------------------|-----------------------------------------|
G#|-----------------------------------------|-----------------------------------------|
D#|-----------------------------------------|-----------------------------------------|

D#|-----------0--------------0--------------|---------|---------|---------|---------|
A#|------5------------------------0---------|---------|---------|---------|---------|
F#|-6--------------6----4--------------6----|-%-------|-%-------|-%-------|-%-------|
C#|-----------------------------------------|-%-------|-%-------|-%-------|-%-------|
G#|-----------------------------------------|---------|---------|---------|---------|
D#|-----------------------------------------|---------|---------|---------|---------|

D#|---------|---------|---------|---------|---------|---------|---------|
A#|---------|---------|---------|---------|---------|---------|---------|
F#|-%-------|-%-------|-%-------|-%-------|-%-------|-%-------|-%-------|
C#|-%-------|-%-------|-%-------|-%-------|-%-------|-%-------|-%-------|
G#|---------|---------|---------|---------|---------|---------|---------|
D#|---------|---------|---------|---------|---------|---------|---------|
Guns N' Roses - Rocket Queen (2)
Guns N' Roses - Rocket Queen (2).gp3