Guns N' Roses - So Fine (2)

Guns N Roses



Title: So Fine
Album: 
Artist: Guns N' Roses
Author: 

Track 1: Lead Guitar
E|---------------------|-------3---------------2-----2---------------|-----------0--------------------------------------|
B|---------------------|-3---------3-------3-------------3-------0---|----------------3----3---0---------------1--------|
G|-%-------%-----------|-0-------------0---------------------0-------|-------4-------------------------0------------0---|
D|-%-------%--------0--|-0-------------------------------------------|-----------------------------0--------------------|
A|---------------------|---------------------------------------------|-2-----------------------------------3------------|
E|---------------3-----|-3-------------------------------------------|--------------------------------------------------|

E|-------3---------------2-----2---------------|-----------0--------------------------------------|
B|-0---------3-------3-------------3-------0---|----------------3---------------------3-----------|
G|-0-------------0---------------------0-------|-------4---------------------0----------------0---|
D|-0-------------------------------------------|-------------------------2--------0-------0-------|
A|---------------------------------------------|-2-------------------3----------------------------|
E|-3-------------------------------------------|--------------------------------------------------|

E|-------3---------------2-----2---------------|-----------0-----------------------------------|
B|-----------3-------3-------------3-------0---|----------------3----3---0------------1--------|
G|---------------0---------------------0-------|-------4----------------------0---0--------0---|
D|-0-------------------------------------------|-----------------------------------------------|
A|---------------------------------------------|-2---------------------------------------------|
E|-3-------------------------------------------|-----------------------------------------------|

E|-------3---------------2--------------|-----------0-----------------------------------|
B|-0---------3-------3--------------0---|----------------3---------------------3--------|
G|-0-------------0--------------0-------|-------4---------------------0-------------0---|
D|-0------------------------------------|-------------------------2---------------------|
A|--------------------------------------|-2-------------------3------------0------------|
E|-3------------------------------------|-----------------------------------------------|

E|-------3---------------2--------------|-----------0-----------------------------------|
B|-----------3-------3--------------0---|----------------3----3---0------------1--------|
G|---------------0--------------0-------|-------4----------------------0---0--------0---|
D|-0------------------------------------|-----------------------------------------------|
A|--------------------------------------|-2---------------------------------------------|
E|-3------------------------------------|-----------------------------------------------|

E|-------3---------------2-----2---------------|-----------0-----------------------------------|
B|-0---------3-------3-------------3-------0---|----------------3---------------------3--------|
G|-0-------------0---------------------0-------|-------4---------------------0-------------0---|
D|-0-------------------------------------------|-------------------------2---------------------|
A|---------------------------------------------|-2-------------------3------------0------------|
E|-3-------------------------------------------|-----------------------------------------------|

E|-------3---------------2-----2---------------|-----------0-----------------------------------|
B|-----------3-------3-------------3-------0---|----------------3----3---0------------1--------|
G|---------------0---------------------0-------|-------4----------------------0---0--------0---|
D|-0-------------------------------------------|-----------------------------------------------|
A|---------------------------------------------|-2---------------------------------------------|
E|-3-------------------------------------------|-----------------------------------------------|

E|-------3---------------2--------------|-----------0--------------------------------|
B|-----------3-------3--------------0---|----------------3---------------------3-----|
G|---------------0--------------0-------|-------4---------------------0----0---2-----|
D|-0------------------------------------|-------------------------2------------------|
A|--------------------------------------|-2-------------------3----------------------|
E|-3------------------------------------|--------------------------------------------|

E|-------0----------------------------|---------------------0------|-------0----------------------------|
B|-------0----------------------1-----|----------------1-----------|-------0----------------------1-----|
G|-------0----0-----------------------|-----------0----------------|-------0----0-----------------------|
D|-------2--------0--------2----------|------2---------------------|-------2--------0--------2----------|
A|--------------------0---------------|-3--------------------------|--------------------0---------------|
E|-0----------------------------------|----------------------------|-0----------------------------------|

E|---------------------0------|-------3---------------2--------------|-----------0-----------------------------------|
B|----------------1-----------|-----------3-------3--------------0---|----------------3----3---0------------1--------|
G|-----------0----------------|---------------0--------------0-------|-------4----------------------0---0--------0---|
D|------2---------------------|-0------------------------------------|-----------------------------------------------|
A|-3--------------------------|--------------------------------------|-2---------------------------------------------|
E|----------------------------|-3------------------------------------|-----------------------------------------------|

E|-------3---------------2-----2---------------|-----------0-----------------------------------|
B|-0---------3-------3-------------3-------0---|----------------3---------------------3--------|
G|-0-------------0---------------------0-------|-------4---------------------0-------------0---|
D|-0-------------------------------------------|-------------------------2---------------------|
A|---------------------------------------------|-2-------------------3------------0------------|
E|-3-------------------------------------------|-----------------------------------------------|

E|-------3---------------2-----2---------------|-----------0-----------------------------------|
B|-----------3-------3-------------3-------0---|----------------3----3---0------------1--------|
G|---------------0---------------------0-------|-------4----------------------0---0--------0---|
D|-0-------------------------------------------|-----------------------------------------------|
A|---------------------------------------------|-2---------------------------------------------|
E|-3-------------------------------------------|-----------------------------------------------|

E|-------3---------------2--------------|-----------0--------------------------------|
B|-----------3-------3--------------0---|----------------3---------------------3-----|
G|---------------0--------------0-------|-------4---------------------0----0---2-----|
D|-0------------------------------------|-------------------------2------------------|
A|--------------------------------------|-2-------------------3----------------------|
E|-3------------------------------------|--------------------------------------------|

E|-------0----------------------------|---------------------0------|-------0----------------------------|
B|-------0----------------------1-----|----------------1-----------|-------0----------------------1-----|
G|-------0----0-----------------------|-----------0----------------|-------0----0-----------------------|
D|-------2--------0--------2----------|------2---------------------|-------2--------0--------2----------|
A|--------------------0---------------|-3--------------------------|--------------------0---------------|
E|-0----------------------------------|----------------------------|-0----------------------------------|

E|---------------------0------|------------------------------------|-------0----------------------------|
B|----------------1-----------|----------------1----1---3---1------|-------0----------------------1-----|
G|-----------0----------------|-----------0------------------------|-------0----0-----------------------|
D|------2---------------------|------2-----------------------------|-------2--------0--------2----------|
A|-3--------------------------|-3----------------------------------|--------------------0---------------|
E|----------------------------|------------------------------------|-0----------------------------------|

E|---------------------0-------------------|-------0-----------------------------------|
B|----------------1---------1--------------|-------0----------------------1------------|
G|-----------0-------------------0---------|-------0----0------------------------------|
D|------2-----------------------------2----|-------2--------0--------2---------2---0---|
A|-3---------------------------------------|--------------------0----------------------|
E|-----------------------------------------|-0-----------------------------------------|

E|---------------------0---------------|-------------------------------------|-----------------------------|
B|----------------1---------1----------|-------------------------------------|-----------------------------|
G|-----------0-------------------0-----|---------------------------%---------|-----------------------------|
D|------2------------------------------|-7-----9----7----7----9----%----9----|-9--------------9------9-----|
A|-3-----------------------------------|-5-----5----5----5--------------7----|-7----7----7----7------7-----|
E|-------------------------------------|-------------------------------------|-----------------------------|

E|-------------------------------------|------------------------|-------------------------------------|
B|-------------------------------------|------------------------|-------------------------------------|
G|------------%------------------------|------------------------|---------------------------%---------|
D|------------%-------------------7----|-7-----9----7----7------|-7-----9----7----7----9----%----9----|
A|-5-----7---------5----5----7----5----|-5-----5----5----5------|-5-----5----5----5--------------7----|
E|-3-----3---------3----3----3---------|------------------------|-------------------------------------|

E|-----------------------------|-------------------------------------|------------------------|
B|-----------------------------|-------------------------------------|------------------------|
G|-----------------------------|------------%------------------------|------------------------|
D|-9--------------9------9-----|------------%-------------------7----|-7-----9----7----7------|
A|-7----7----7----7------7-----|-5-----7---------5----5----7----5----|-5-----5----5----5------|
E|-----------------------------|-3-----3---------3----3----3---------|------------------------|

E|-------------------------------------|-----------------------------|-------------------------------------|
B|-------------------------------------|-----------------------------|-------------------------------------|
G|---------------------------%---------|-----------------------------|------------%------------------------|
D|-7-----9----7----7----9----%----9----|-9--------------9------9-----|------------%-------------------7----|
A|-5-----5----5----5--------------7----|-7----7----7----7------7-----|-5-----7---------5----5----7----5----|
E|-------------------------------------|-----------------------------|-3-----3---------3----3----3---------|

E|------------------------|-------------------------------------|-----------------------------|
B|------------------------|-------------------------------------|-----------------------------|
G|------------------------|---------------------------%---------|-----------------------------|
D|-7-----9----7----7------|-7-----9----7----7----9----%----9----|-9--------------9------9-----|
A|-5-----5----5----5------|-5-----5----5----5--------------7----|-7----7----7----7------7-----|
E|------------------------|-------------------------------------|-----------------------------|

E|---------|---------|---------------|------------------------------------|---------------|
B|---------|---------|--------5------|-12-----12---12--12--12---15---12---|-10----12------|
G|---------|---------|-%-------------|------------------------------------|---------------|
D|-5-------|-5-------|-%-------------|------------------------------------|---------------|
A|-5-------|-5-------|---------------|------------------------------------|---------------|
E|-3-------|-3-------|---------------|------------------------------------|---------------|

E|---------------------------------------|------------------------------------|------15--15--15--14--14--14--12--12--12--10--10--10----|
B|-12----------12--12--12--15--15---12---|-12--11--12---12----12--17----15----|-15---15------------------------------------------------|
G|-------%-------------------------------|------------------------------------|--------------------------------------------------------|
D|-------%-------------------------------|------------------------------------|--------------------------------------------------------|
A|---------------------------------------|------------------------------------|--------------------------------------------------------|
E|---------------------------------------|------------------------------------|--------------------------------------------------------|

E|-14----14---10--9---10-----|-10-------------------------------------------|-------------------------|
B|---------------------------|-----------12--12--12--15--15---12----12--10--|-12-----12---17----17----|
G|---------------------------|------%---------------------------------------|-------------------17----|
D|---------------------------|------%---------------------------------------|-------------------------|
A|---------------------------|----------------------------------------------|-------------------------|
E|---------------------------|----------------------------------------------|-------------------------|

E|------------------------|---------|-------------------------------------|------------------------|
B|-19-----19----19---19---|-20------|-------------------------------------|------------------------|
G|-19-----19----19--------|---------|------------%------------------------|------------------------|
D|------------------------|---------|------------%-------------------7----|-7-----9----7----7------|
A|------------------------|---------|-5-----7---------5----5----7----5----|-5-----5----5----5------|
E|------------------------|---------|-3-----3---------3----3----3---------|------------------------|

E|-------------------------------------|-----------------------------|-------------------------------------|
B|-------------------------------------|-----------------------------|-------------------------------------|
G|---------------------------%---------|-----------------------------|------------%------------------------|
D|-7-----9----7----7----9----%----9----|-9--------------9------9-----|------------%-------------------7----|
A|-5-----5----5----5--------------7----|-7----7----7----7------7-----|-5-----7---------5----5----7----5----|
E|-------------------------------------|-----------------------------|-3-----3---------3----3----3---------|

E|------------------------|-------------------------------------|-----------------------------|
B|------------------------|-------------------------------------|-----------------------------|
G|------------------------|---------------------------%---------|-----------------------------|
D|-7-----9----7----7------|-7-----9----7----7----9----%----9----|-9--------------9------9-----|
A|-5-----5----5----5------|-5-----5----5----5--------------7----|-7----7----7----7------7-----|
E|------------------------|-------------------------------------|-----------------------------|

E|-------------------------------------|------------------------|-------------------------------------|
B|-------------------------------------|------------------------|-------------------------------------|
G|------------%------------------------|------------------------|---------------------------%---------|
D|------------%-------------------7----|-7-----9----7----7------|-7-----9----7----7----9----%----9----|
A|-5-----7---------5----5----7----5----|-5-----5----5----5------|-5-----5----5----5--------------7----|
E|-3-----3---------3----3----3---------|------------------------|-------------------------------------|

E|-----------------------------|---------|---------|-------3---------------2-----2---------------|
B|-----------------------------|---------|---------|-3---------3-------3-------------3-------0---|
G|-----------------------------|---------|---------|-0-------------0---------------------0-------|
D|-9--------------9------9-----|-5-------|-5-------|-0-------------------------------------------|
A|-7----7----7----7------7-----|-5-------|-5-------|---------------------------------------------|
E|-----------------------------|-3-------|-3-------|-3-------------------------------------------|

E|-----------0--------------------------------------|-------3---------------2-----2---------------|
B|----------------3----3---0---------------1--------|-0---------3-------3-------------3-------0---|
G|-------4-------------------------0------------0---|-0-------------0---------------------0-------|
D|-----------------------------0--------------------|-0-------------------------------------------|
A|-2-----------------------------------3------------|---------------------------------------------|
E|--------------------------------------------------|-3-------------------------------------------|

E|-----------0--------------------------------------|-------3---------------2-----2---------------|
B|----------------3---------------------3-----------|-3---------3-------3-------------3-------0---|
G|-------4---------------------0----------------0---|-0-------------0---------------------0-------|
D|-------------------------2--------0-------0-------|-0-------------------------------------------|
A|-2-------------------3----------------------------|---------------------------------------------|
E|--------------------------------------------------|-3-------------------------------------------|

E|-----------0--------------------------------------|-------3---------------2-----2---------------|
B|----------------3----3---0---------------1--------|-0---------3-------3-------------3-------0---|
G|-------4-------------------------0------------0---|-0-------------0---------------------0-------|
D|-----------------------------0--------------------|-0-------------------------------------------|
A|-2-----------------------------------3------------|---------------------------------------------|
E|--------------------------------------------------|-3-------------------------------------------|

E|-----------0-----------------------------------|---------------------------3-----|
B|----------------3------------------------------|---------------------3-----------|
G|-------4---------------------0-----------------|----------------0----------------|
D|-------------------------2---------------------|-----------0---------------------|
A|-2-------------------3------------3---2---0----|------2--------------------------|
E|-----------------------------------------------|-3-------------------------------|

E|-3-------|---------|
B|---------|---------|
G|---------|-%-------|
D|---------|-%-------|
A|---------|---------|
E|---------|---------|
Guns N' Roses - So Fine (2)
Guns N' Roses - So Fine (2).gp3