Guns N' Roses - Spanish Guitar

Guns N' Roses - Spanish Guitar

Guns N Roses



Title: Spanish guitar
Album: 
Artist: Slash (?)
Author: 

Track 1: SLASH
E|-10-10-10-10--10-10-10-10-10-10-10-10-10-10-10-10-----|-----------9----10---12--10--9-------9---------------|
B|------------------------------------------------------|------10-------------------------11------11--10------|
G|------------------------------------------------------|-%-----------------------------------------------12--|
D|------------------------------------------------------|-%---------------------------------------------------|
A|------------------------------------------------------|-----------------------------------------------------|
E|------------------------------------------------------|-----------------------------------------------------|

E|-----------------------------------------------------------------|-----------------------------------------------------|
B|-10--------------------------------------------------------------|-----------------------------------------------------|
G|-----12--10--9---10--9---7---6---7---6---------------------------|-----------------------------------------------------|
D|-----------------------------------------8---7---8---7---5-------|-5---------------------------------------------------|
A|-------------------------------------------------------------8---|-----8---7---5---7---5---4-----------------4----5----|
E|-----------------------------------------------------------------|-----------------------------6---5----5--------------|

E|-----------------|------13---12---13--------13---12---13---|------13---12---13--------13---12---13---|
B|-----------------|-10-----------------10-------------------|-10-----------------10-------------------|
G|-----------------|-----------------------------------------|-----------------------------------------|
D|-----------------|-----------------------------------------|-----------------------------------------|
A|-7-----5----4----|-----------------------------------------|-----------------------------------------|
E|-----------------|-----------------------------------------|-----------------------------------------|

E|------13---12---13--------13---12---13---|------13---12---13--------13---12---13---|
B|-11-----------------11-------------------|-11-----------------11-------------------|
G|-----------------------------------------|-----------------------------------------|
D|-----------------------------------------|-----------------------------------------|
A|-----------------------------------------|-----------------------------------------|
E|-----------------------------------------|-----------------------------------------|

E|------12---10---12--------10---9----10---|------10---9----10--------8----6----8----|
B|-13-----------------8--------------------|-11-----------------6--------------------|
G|-----------------------------------------|-----------------------------------------|
D|-----------------------------------------|-----------------------------------------|
A|-----------------------------------------|-----------------------------------------|
E|-----------------------------------------|-----------------------------------------|

E|------9---------9---------9---------9----|------9---------9---------9---------9----|
B|-10--------11-------10---------11--------|-10--------11-------10---------11--------|
G|-----------------------------------------|-----------------------------------------|
D|-----------------------------------------|-----------------------------------------|
A|-----------------------------------------|-----------------------------------------|
E|-----------------------------------------|-----------------------------------------|

E|------13---12---13--------12---10---12---|------11---10---11--------10---9----10---|
B|-10-----------------13-------------------|--------------------11-------------------|
G|-----------------------------------------|-12--------------------------------------|
D|-----------------------------------------|-----------------------------------------|
A|-----------------------------------------|-----------------------------------------|
E|-----------------------------------------|-----------------------------------------|

E|-10-----10---9---------9----|-------------------------------------------|-------------------------------------|
B|------------------11--------|-11---10----11---10-----------10-----------|-------------------------------------|
G|----------------------------|---------------------12-10-12----10--------|-------------------------------------|
D|----------------------------|-------------------------------------12----|-12--------11---12---14----12---11---|
A|----------------------------|-------------------------------------------|------12-----------------------------|
E|----------------------------|-------------------------------------------|-------------------------------------|

E|-------------------------------------|---------|-----------------------------------------|
B|----------------6----5---------------|---------|-----------5----6----5--------------8----|
G|-----------7--------------7----------|---------|--------------------------7--------------|
D|------7------------------------7-----|-7-------|-------------------------------8---------|
A|-5-----------------------------------|---------|------5----------------------------------|
E|-------------------------------------|---------|-6---------------------------------------|

E|-------------------------------------|--------6----5----------|-----------------------------------------|
B|-8----8----6----5--------------------|-------------------8----|-8----8----8----8----6----5--------------|
G|---------------------7----6----7-----|-%----------------------|-------------------------------7----7----|
D|-------------------------------------|-%----------------------|-----------------------------------------|
A|-------------------------------------|------------------------|-----------------------------------------|
E|-------------------------------------|------------------------|-----------------------------------------|

E|-------------------------------------|---------|-----------------------------------------|
B|----------------6----5---------------|---------|----------------6----5--------------5----|
G|-----------7--------------7----------|---------|-----------7--------------7--------------|
D|------7------------------------7-----|-7-------|------7------------------------7---------|
A|-5-----------------------------------|---------|-----------------------------------------|
E|-------------------------------------|---------|-5---------------------------------------|

E|---------|-----------------------------------------|-------------------|------------------------|
B|-5-------|-----------5----6----8----6----5---------|-------------------|-10-----10---8----6-----|
G|---------|------6-----------------------------7----|-7----%----%-------|------------------------|
D|---------|-----------------------------------------|------%----%-------|------------------------|
A|---------|-----------------------------------------|-------------------|------------------------|
E|---------|-5---------------------------------------|-------------------|------------------------|

E|---------------|------------------------|-------------------------|------------------------|
B|---------------|-10-----10---8----6-----|-8------6------8----6----|-8------8----6----------|
G|-9------7------|------------------------|-------------------------|------------------9-----|
D|---------------|------------------------|-------------------------|------------------------|
A|---------------|------------------------|-------------------------|------------------------|
E|---------------|------------------------|-------------------------|------------------------|

E|-----------------------------|---------|-------------------------------------8---9---9-----9----|
B|-------------------6---------|-5-------|-----------------6---8---8---10--11---------------------|
G|-9------7-----7---------7----|---------|-----6---9---9------------------------------------------|
D|-----------------------------|---------|-7------------------------------------------------------|
A|-----------------------------|---------|--------------------------------------------------------|
E|-----------------------------|---------|--------------------------------------------------------|

E|-10---10---10---10---10-----|------9----10---12---13----12---10---|-13---12---12-----10-----|
B|----------------------------|-------------------------------------|-------------------------|
G|----------------------------|-%-----------------------------------|-------------------------|
D|----------------------------|-%-----------------------------------|-------------------------|
A|----------------------------|-------------------------------------|-------------------------|
E|----------------------------|-------------------------------------|-------------------------|

E|-9----9-----------------------9----10---|-10---12---12---12---12---12---12----|-12--10--9-------9-----------------------------------------------|
B|-----------10---10----10--10------------|-------------------------------------|-------------11------11--10------10------------------------------|
G|----------------------------------------|-------------------------------------|-----------------------------12------12--10--9---10--9-----------|
D|----------------------------------------|-------------------------------------|---------------------------------------------------------12--11--|
A|----------------------------------------|-------------------------------------|-----------------------------------------------------------------|
E|----------------------------------------|-------------------------------------|-----------------------------------------------------------------|

E|-----------------------------------------------------------------|-------------------------------------|
B|-----------------------------------------------------------------|-------------------------------------|
G|-----------------------------------------------------------------|-------------------------------------|
D|-12--11--8---7---8---7---5-------5-------------------------------|-------------------------------------|
A|-----------------------------8-------8---7---5---7---5---4-------|-----------4----5----7-----5----4----|
E|-------------------------------------------------------------5---|-5----5------------------------------|

E|---------|------------------------|--------------------------------|---------------------------------------------------------------------------------8----|
B|---------|-10-----10----8---------|-8---------8--------------------|-----------------------------------------------------------------8---10--10--11-------|
G|---------|-------------------10---|-------10------10----10---10----|---------------------------------------------7---7---9---10--10-----------------------|
D|---------|------------------------|--------------------------------|---------------------5---5---7---8---8---10-------------------------------------------|
A|-5-------|------------------------|--------------------------------|-----5---7---7---8--------------------------------------------------------------------|
E|---------|------------------------|--------------------------------|-6------------------------------------------------------------------------------------|

E|-9----10---12---12---12----10---10---|-10---9----10---12---13----12---12---12---|
B|-------------------------------------|------------------------------------------|
G|-------------------------------------|------------------------------------------|
D|-------------------------------------|------------------------------------------|
A|-------------------------------------|------------------------------------------|
E|-------------------------------------|------------------------------------------|

E|-10---12---13---12---13---12---12---10---15---15----|-15----13---12---13---12----10---|
B|----------------------------------------------------|---------------------------------|
G|----------------------------------------------------|---------------------------------|
D|----------------------------------------------------|---------------------------------|
A|----------------------------------------------------|---------------------------------|
E|----------------------------------------------------|---------------------------------|

E|-10---10-----10----13-13-13-13-|-13----15-----15----|-13---12---13----12-----|-10---9----10----10-----|
B|-------------------------------|--------------------|------------------------|------------------------|
G|-------------------------------|--------------------|------------------------|------------------------|
D|-------------------------------|--------------------|------------------------|------------------------|
A|-------------------------------|--------------------|------------------------|------------------------|
E|-------------------------------|--------------------|------------------------|------------------------|

E|---------------------------------------|---------------------------------------|-----------------------------------------|
B|-11--13-11-10--------------------------|-10--11-10-----------------------------|---------------------6----5--------------|
G|---------------12--10--12--12---12-----|-----------12--10--9---9----9------9---|-7----6------------------------7----6----|
D|---------------------------------------|---------------------------------------|-----------8----7------------------------|
A|---------------------------------------|---------------------------------------|-----------------------------------------|
E|---------------------------------------|---------------------------------------|-----------------------------------------|

E|-------------13---12---13---|------13---12---13--------13---12---13---|------13---12---13--------13---12---13---|
B|----------------------------|-10-----------------10-------------------|-11-----------------11-------------------|
G|-7----7---------------------|-----------------------------------------|-----------------------------------------|
D|----------------------------|-----------------------------------------|-----------------------------------------|
A|----------------------------|-----------------------------------------|-----------------------------------------|
E|----------------------------|-----------------------------------------|-----------------------------------------|

E|------13---12---13--------13---12---13---|------12---10---12--------10---9----10---|
B|-11-----------------11-------------------|-13-----------------8--------------------|
G|-----------------------------------------|-----------------------------------------|
D|-----------------------------------------|-----------------------------------------|
A|-----------------------------------------|-----------------------------------------|
E|-----------------------------------------|-----------------------------------------|

E|------10---9----10--------8----6----8----|------9---------9---------9---------9----|
B|-11-----------------6--------------------|-10--------11-------10---------11--------|
G|-----------------------------------------|-----------------------------------------|
D|-----------------------------------------|-----------------------------------------|
A|-----------------------------------------|-----------------------------------------|
E|-----------------------------------------|-----------------------------------------|

E|------9---------9---------9---------9----|------13---12---13--------12---10---12---|
B|-10--------11-------10---------11--------|-10-----------------13-------------------|
G|-----------------------------------------|-----------------------------------------|
D|-----------------------------------------|-----------------------------------------|
A|-----------------------------------------|-----------------------------------------|
E|-----------------------------------------|-----------------------------------------|

E|------11---10---11--------10---9----10---|---------|
B|--------------------11-------------------|---------|
G|-12--------------------------------------|-%-------|
D|-----------------------------------------|-%-------|
A|-----------------------------------------|---------|
E|-----------------------------------------|---------|
Guns N' Roses - Spanish Guitar
Guns N' Roses - Spanish Guitar.gp4