Guns N' Roses - Sweet Child O ' mine (3)

Guns N Roses



Title: Sweet child o'mine
Album: 
Artist: Guns 'n' Roses
Author: Guns n'roses

Track 1: Guitar 1
E|------10-------------15--------14--------|------10-------------15--------14--------|
B|-----------10---8---------10--------10---|-----------10---8---------10--------10---|
G|-7---------------------------------------|-7---------------------------------------|
D|-----------------------------------------|-----------------------------------------|
A|-----------------------------------------|-----------------------------------------|
E|-----------------------------------------|-----------------------------------------|

E|------10-------------15--------14--------|------10-------------15--------14--------|
B|-----------10---8---------10--------10---|-----------10---8---------10--------10---|
G|-9---------------------------------------|-9---------------------------------------|
D|-----------------------------------------|-----------------------------------------|
A|-----------------------------------------|-----------------------------------------|
E|-----------------------------------------|-----------------------------------------|

E|------10-------------15--------14--------|------10-------------15--------14--------|
B|-8---------10---8---------10--------10---|-8---------10---8---------10--------10---|
G|-----------------------------------------|-----------------------------------------|
D|-----------------------------------------|-----------------------------------------|
A|-----------------------------------------|-----------------------------------------|
E|-----------------------------------------|-----------------------------------------|

E|------10-------------15--------14--------|------10-------------15--------14--------|
B|-----------10---8---------10--------10---|-----------10---8---------10--------10---|
G|-7---------------------------------------|-7---------------------------------------|
D|-----------------------------------------|-----------------------------------------|
A|-----------------------------------------|-----------------------------------------|
E|-----------------------------------------|-----------------------------------------|

E|------10-------------15--------14--------|------10-------------15--------14--------|
B|-----------10---8---------10--------10---|-----------10---8---------10--------10---|
G|-7---------------------------------------|-7---------------------------------------|
D|-----------------------------------------|-----------------------------------------|
A|-----------------------------------------|-----------------------------------------|
E|-----------------------------------------|-----------------------------------------|

E|------10-------------15--------14--------|------10-------------15--------14--------|
B|-----------10---8---------10--------10---|-----------10---8---------10--------10---|
G|-9---------------------------------------|-9---------------------------------------|
D|-----------------------------------------|-----------------------------------------|
A|-----------------------------------------|-----------------------------------------|
E|-----------------------------------------|-----------------------------------------|

E|------10-------------15--------14--------|------10-------------15--------14--------|
B|-8---------10---8---------10--------10---|-8---------10---8---------10--------10---|
G|-----------------------------------------|-----------------------------------------|
D|-----------------------------------------|-----------------------------------------|
A|-----------------------------------------|-----------------------------------------|
E|-----------------------------------------|-----------------------------------------|

E|------10-------------15--------14--------|------10-------------15--------14--------|
B|-----------10---8---------10--------10---|-----------10---8---------10--------10---|
G|-7---------------------------------------|-7---------------------------------------|
D|-----------------------------------------|-----------------------------------------|
A|-----------------------------------------|-----------------------------------------|
E|-----------------------------------------|-----------------------------------------|

E|------10-------------15--------14--------|------10-------------15--------14--------|
B|-----------10---8---------10--------10---|-----------10---8---------10--------10---|
G|-7---------------------------------------|-7---------------------------------------|
D|-----------------------------------------|-----------------------------------------|
A|-----------------------------------------|-----------------------------------------|
E|-----------------------------------------|-----------------------------------------|

E|------10-------------15--------14--------|------10-------------15--------14--------|
B|-----------10---8---------10--------10---|-----------10---8---------10--------10---|
G|-9---------------------------------------|-9---------------------------------------|
D|-----------------------------------------|-----------------------------------------|
A|-----------------------------------------|-----------------------------------------|
E|-----------------------------------------|-----------------------------------------|

E|------10-------------15--------14--------|------10-------------15--------14--------|
B|-8---------10---8---------10--------10---|-8---------10---8---------10--------10---|
G|-----------------------------------------|-----------------------------------------|
D|-----------------------------------------|-----------------------------------------|
A|-----------------------------------------|-----------------------------------------|
E|-----------------------------------------|-----------------------------------------|

E|-12--------10--------12--------14--------|-15--------14--------12------------------|
B|------10--------10--------10--------10---|------10--------10--------10---15---10---|
G|-----------------------------------------|-----------------------------------------|
D|-----------------------------------------|-----------------------------------------|
A|-----------------------------------------|-----------------------------------------|
E|-----------------------------------------|-----------------------------------------|

E|---------|---------|---------|---------|---------|---------|---------|---------|---------|
B|---------|---------|---------|---------|---------|---------|---------|---------|---------|
G|-7-------|-7-------|-5-------|-5-------|---------|---------|-7-------|-7-------|-7-------|
D|-7-------|-7-------|-5-------|-5-------|-5-------|-5-------|-7-------|-7-------|-7-------|
A|-5-------|-5-------|-3-------|-3-------|-5-------|-5-------|-5-------|-5-------|-5-------|
E|---------|---------|---------|---------|-3-------|-3-------|---------|---------|---------|

E|---------|---------|---------|---------|---------|---------|---------|------------------------|
B|---------|---------|---------|---------|---------|---------|---------|------------------------|
G|-7-------|-5-------|-5-------|---------|---------|-7-------|-7-------|-2------2-----2----4----|
D|-7-------|-5-------|-5-------|-5-------|-5-------|-7-------|-7-------|-2------2-----2----4----|
A|-5-------|-3-------|-3-------|-5-------|-5-------|-5-------|-5-------|-0------0-----0----2----|
E|---------|---------|---------|-3-------|-3-------|---------|---------|------------------------|

E|---------|---------------------------------|----------------------------|------------------------|
B|---------|---------------------------------|----------------------------|------------------------|
G|-5-------|-7-----%----7----7-----%----7----|-7----7----7----7----7------|-2------2-----2----4----|
D|-5-------|-7-----%----7----7-----%----7----|-7----7----7----7----7------|-2------2-----2----4----|
A|-3-------|-5----------5----5----------5----|-5----5----5----5----5------|-0------0-----0----2----|
E|---------|---------------------------------|----------------------------|------------------------|

E|---------|---------|------------------------|---------------------------------|---------------------------------|
B|---------|---------|-------------------10---|-8-----8----7----7-----7----10---|-8-----8----7----7-----7----10---|
G|-5-------|-7-------|-7------7-----9---------|---------------------------------|---------------------------------|
D|-5-------|-7-------|-7------7---------------|---------------------------------|---------------------------------|
A|-3-------|-5-------|-5------5---------------|---------------------------------|---------------------------------|
E|---------|---------|------------------------|---------------------------------|---------------------------------|

E|---------------------------------|---------------------------------|--------------------|
B|-8-----8--------------------10---|-8-----8--------------------10---|-8------10----8-----|
G|------------9----9-----9---------|------------9----9-----9---------|--------------------|
D|---------------------------------|---------------------------------|--------------------|
A|---------------------------------|---------------------------------|--------------------|
E|---------------------------------|---------------------------------|--------------------|

E|-------10---10---10----------|---------|---------|------------------------|------------------------|
B|-10--------------------------|---------|---------|-8------8-----8----10---|-8------7----------7----|
G|-----------------------9-----|-9-------|-9-------|------------------------|--------------7---------|
D|-----------------------------|---------|---------|------------------------|------------------------|
A|-----------------------------|---------|---------|------------------------|------------------------|
E|-----------------------------|---------|---------|------------------------|------------------------|

E|-------------10---------|----------------------------|---------------------------------|
B|-7------7---------7-----|-7------7----7----7----10---|-8-----8----7----7-----7----10---|
G|------------------------|----------------------------|---------------------------------|
D|------------------------|----------------------------|---------------------------------|
A|------------------------|----------------------------|---------------------------------|
E|------------------------|----------------------------|---------------------------------|

E|----------------------10---10---10---|-8-----8----12---12----12---12---|-12----10---10---10---8----8----7----|
B|-8-----7----10---10------------------|---------------------------------|-------------------------------------|
G|-------------------------------------|---------------------------------|-------------------------------------|
D|-------------------------------------|---------------------------------|-------------------------------------|
A|-------------------------------------|---------------------------------|-------------------------------------|
E|-------------------------------------|---------------------------------|-------------------------------------|

E|-7-------------------------------|-------10-----------|-------17----17-----|-17------|
B|-------8---------------10---8----|-10-----------17----|-17----------17-----|-17------|
G|------------7----7---------------|--------------------|--------------------|---------|
D|---------------------------------|--------------------|--------------------|---------|
A|---------------------------------|--------------------|--------------------|---------|
E|---------------------------------|--------------------|--------------------|---------|

E|------------------------|---------|---------------------------------|----------------------------|
B|------------------------|---------|---------------------------------|----------------------------|
G|-2------2-----2----4----|-5-------|-7-----%----7----7-----%----7----|-7----7----7----7----7------|
D|-2------2-----2----4----|-5-------|-7-----%----7----7-----%----7----|-7----7----7----7----7------|
A|-0------0-----0----2----|-3-------|-5----------5----5----------5----|-5----5----5----5----5------|
E|------------------------|---------|---------------------------------|----------------------------|

E|------------------------|---------|---------|-------------------------------------|
B|------------------------|---------|---------|-------------------------------------|
G|-2------2-----2----4----|-5-------|-7-------|-7-----7-----7-----7-----7-----7-----|
D|-2------2-----2----4----|-5-------|-7-------|-7-----7-----7-----7-----7-----7-----|
A|-0------0-----0----2----|-3-------|-5-------|-5-----5-----5-----5-----5-----5-----|
E|------------------------|---------|---------|-------------------------------------|

E|------------------------|---------|---------------------------------|----------------------------|
B|------------------------|---------|---------------------------------|----------------------------|
G|-2------2-----2----4----|-5-------|-7-----%----7----7-----%----7----|-7----7----7----7----7------|
D|-2------2-----2----4----|-5-------|-7-----%----7----7-----%----7----|-7----7----7----7----7------|
A|-0------0-----0----2----|-3-------|-5----------5----5----------5----|-5----5----5----5----5------|
E|------------------------|---------|---------------------------------|----------------------------|

E|------------------------|---------|---------|---------------------------------|-17-----17----15----|
B|------------------------|---------|---------|---------------------------------|--------------------|
G|-2------2-----2----4----|-5-------|-7-------|-7----7----7----7----7-----7-----|--------------------|
D|-2------2-----2----4----|-5-------|-7-------|-7----7----7----7----7-----7-----|--------------------|
A|-0------0-----0----2----|-3-------|-5-------|-5----5----5----5----5-----5-----|--------------------|
E|------------------------|---------|---------|---------------------------------|--------------------|

E|-14----15--14------------------15---|-14----15--14----------12----14----|-------------------------------------|
B|---------------17---17----17--------|---------------17--16--------------|-15----12----------------------------|
G|------------------------------------|-----------------------------------|------------14---14---12---11---12---|
D|------------------------------------|-----------------------------------|-------------------------------------|
A|------------------------------------|-----------------------------------|-------------------------------------|
E|------------------------------------|-----------------------------------|-------------------------------------|

E|--------------------------------------|------------------------------|------------------------|
B|----------------------------13---12---|-12----12--13--12--10--13-----|-13----12---12---12-----|
G|-------------11---12---14-------------|------------------------------|------------------------|
D|-14-----14----------------------------|------------------------------|------------------------|
A|--------------------------------------|------------------------------|------------------------|
E|--------------------------------------|------------------------------|------------------------|

E|--------15----------|-------------------------------------|---------------------------------|
B|-12-----------7-----|-7------------------------------7----|-7-------------------------------|
G|--------------------|-------9----9----9----9----9---------|-------9----9----9----9----9-----|
D|--------------------|-------------------------------------|---------------------------------|
A|--------------------|-------------------------------------|---------------------------------|
E|--------------------|-------------------------------------|---------------------------------|

E|-------------------------------------|-------------------------|---------|--------------------|
B|-------------------------------------|-------------------------|---------|-7------------------|
G|-8----8----8----11---11---11---11----|-11----------------------|-9-------|--------9-----8-----|
D|-------------------------------------|-------9-----7-----9-----|---------|--------------------|
A|-------------------------------------|-------------------------|---------|--------------------|
E|-------------------------------------|-------------------------|---------|--------------------|

E|---------------------------|---------------------7---8---7---11--7---8---11--12--14--11--12--|
B|---------------------------|-7---8-------7---10----------------------------------------------|
G|-8------11----11---8---9---|---------9-------------------------------------------------------|
D|---------------------------|-----------------------------------------------------------------|
A|---------------------------|-----------------------------------------------------------------|
E|---------------------------|-----------------------------------------------------------------|

E|-14--15--12--14--15--14--12------14--11--12--14------17-------|--------------------------------|
B|-----------------------------15------------------15------15---|-15----15----15----15---12------|
G|--------------------------------------------------------------|----------------------------14--|
D|--------------------------------------------------------------|--------------------------------|
A|--------------------------------------------------------------|--------------------------------|
E|--------------------------------------------------------------|--------------------------------|

E|---------------------------|--------------------|------------------------|------------------12-------------|
B|-15----15-----15---12------|-17----17-----17----|-17----17-----17---15---|-17----15----15--------15---12---|
G|-----------------------14--|--------------------|------------------------|---------------------------------|
D|---------------------------|--------------------|------------------------|---------------------------------|
A|---------------------------|--------------------|------------------------|---------------------------------|
E|---------------------------|--------------------|------------------------|---------------------------------|

E|-------------------------------------|--------------------------15-------------|---------------------15---------------------------|
B|-------------------------------------|--------------------------15--------15---|-15---15---15---15-------15-----------------------|
G|-14---12---14---12---14----12---14---|-14---12---14---12---14--------14---14---|-14---14---14---14-----------14---12------12--14--|
D|-------------------------------------|-----------------------------------------|--------------------------------------14----------|
A|-------------------------------------|-----------------------------------------|--------------------------------------------------|
E|-------------------------------------|-----------------------------------------|--------------------------------------------------|

E|---------------------------------------|---------------------------------------|-----------------------------------------------------------------|
B|---------------------------------------|---------------------------------------|---------------------------------12--12----------15--15--12--12--|
G|-12--------------------12--14--12------|-12--------------------12--14--12------|-12--12----------14--14--12--14----------14--12------------------|
D|-------14---12---14----------------14--|-------14---12---14----------------14--|---------14--12--------------------------------------------------|
A|---------------------------------------|---------------------------------------|-----------------------------------------------------------------|
E|---------------------------------------|---------------------------------------|-----------------------------------------------------------------|

E|-12--12----------15--15--12--12--15---14-------12--15--12--|-----------------------------------------------------------------|
B|---------15--12----------------------------15--------------|-15--17--15----------17--15------15--17--15----------17--15------|
G|-----------------------------------------------------------|-------------16--14----------16--------------16--14----------16--|
D|-----------------------------------------------------------|-----------------------------------------------------------------|
A|-----------------------------------------------------------|-----------------------------------------------------------------|
E|-----------------------------------------------------------|-----------------------------------------------------------------|

E|-----------------------------------------------------------------|-15-----15---15--12--15--12------12--|
B|-15--17--15----------17--15------15--17--15----------17--15------|-----------------------------15------|
G|-------------16--14----------16--------------16--14----------16--|-------------------------------------|
D|-----------------------------------------------------------------|-------------------------------------|
A|-----------------------------------------------------------------|-------------------------------------|
E|-----------------------------------------------------------------|-------------------------------------|

E|------12-----------------------------------|---------------|-----------------------------|
B|-15--------12------------------------------|---------------|-----------------------------|
G|----------------14---14----12--14--12------|-12-----2------|-----------------------------|
D|---------------------------------------14--|---------------|-5-----5----5----5-----5-----|
A|-------------------------------------------|---------------|-5-----5----5----5-----5-----|
E|-------------------------------------------|---------------|-3-----3----3----3-----3-----|

E|---------------------------------|-------------------------|---------------------------------|
B|---------------------------------|-------------------------|---------------------------------|
G|-2-----2----2----2-----2----2----|-5-----5-----7-----------|---------------------------------|
D|-2-----2----2----2-----2----2----|-5-----5-----7-----5-----|-2-----2----2----2---------------|
A|-0-----0----0----0-----0----0----|-3-----3-----5-----5-----|-2-----2----2----2---------------|
E|---------------------------------|-------------------3-----|-0-----0----0----0-----0----2----|

E|-----------------------------|---------------------------------|-------------------------|
B|-----------------------------|---------------------------------|-------------------------|
G|-----------------------------|-2-----2----2----2-----2----2----|-5-----5-----7-----------|
D|-5-----5----5----5-----5-----|-2-----2----2----2-----2----2----|-5-----5-----7-----5-----|
A|-5-----5----5----5-----5-----|-0-----0----0----0-----0----0----|-3-----3-----5-----5-----|
E|-3-----3----3----3-----3-----|---------------------------------|-------------------3-----|

E|---------------------------------|-----------------------------|---------------------------------|
B|---------------------------------|-----------------------------|---------------------------------|
G|---------------------------------|-----------------------------|-2-----2----2----2-----2----2----|
D|-2-----2----2----2---------------|-5-----5----5----5-----5-----|-2-----2----2----2-----2----2----|
A|-2-----2----2----2---------------|-5-----5----5----5-----5-----|-0-----0----0----0-----0----0----|
E|-0-----0----0----0-----0----2----|-3-----3----3----3-----3-----|---------------------------------|

E|-------------------------|-----------------------------------------|-----------------------------------------|
B|-------------------------|-----------------------------------------|-----------------------------------------|
G|-5-----5-----7-----------|-----------------------------------------|-----------------------------------------|
D|-5-----5-----7-----5-----|-2----2----2----2----2----2----2----2----|-5----5----5----5----5----5----5----5----|
A|-3-----3-----5-----5-----|-2----2----2----2----2----2----2----2----|-5----5----5----5----5----5----5----5----|
E|-------------------3-----|-0----0----0----0----0----0----0----0----|-3----3----3----3----3----3----3----3----|

E|-----------------------------------------|-----------------------------------------|
B|-----------------------------------------|-----------------------------------------|
G|-2----2----2----2----2----2----2----2----|-5----5----5----5----7----7--------------|
D|-2----2----2----2----2----2----2----2----|-5----5----5----5----7----7----5----5----|
A|-0----0----0----0----0----0----0----0----|-3----3----3----3----5----5----5----5----|
E|-----------------------------------------|-------------------------------3----3----|

E|---------------------------------|-----------------------------|---------------------------------|
B|---------------------------------|-----------------------------|---------------------------------|
G|---------------------------------|-----------------------------|-2-----2----2----2-----2----4----|
D|-2-----2----2----2---------------|-5-----5----5----5-----5-----|-2-----2----2----2-----2----4----|
A|-2-----2----2----2---------------|-5-----5----5----5-----5-----|-0-----0----0----0-----0----2----|
E|-0-----0----0----0-----0----2----|-3-----3----3----3-----3-----|---------------------------------|

E|-------------------------|---------------------------------|-----------------------------|
B|-------------------------|---------------------------------|-----------------------------|
G|-5-----5-----7-----------|---------------------------------|-----------------------------|
D|-5-----5-----7-----5-----|-2-----2----2----2---------------|-5-----5----5----5-----5-----|
A|-3-----3-----5-----5-----|-2-----2----2----2---------------|-5-----5----5----5-----5-----|
E|-------------------3-----|-0-----0----0----0-----0----2----|-3-----3----3----3-----3-----|

E|---------------------------------|-------------------------|---------------------------------|
B|---------------------------------|-------------------------|---------------------------------|
G|-2-----2----2----2-----2----4----|-5-----5-----7-----------|---------------------------------|
D|-2-----2----2----2-----2----4----|-5-----5-----7-----5-----|-2-----2----2----2---------------|
A|-0-----0----0----0-----0----2----|-3-----3-----5-----5-----|-2-----2----2----2---------------|
E|---------------------------------|-------------------3-----|-0-----0----0----0-----0----2----|

E|-----------------------------|---------------------------------|-------------------------------------|
B|-----------------------------|---------------------------------|-------------------------------------|
G|-----------------------------|-2-----2----2----2-----2----4----|-9-----7-----------------------------|
D|-5-----5----5----5-----5-----|-2-----2----2----2-----2----4----|-9-----7-----9-----8-----7-----5-----|
A|-5-----5----5----5-----5-----|-0-----0----0----0-----0----2----|-7-----5-----9-----8-----7-----5-----|
E|-3-----3----3----3-----3-----|---------------------------------|-------------7-----6-----5-----3-----|

E|---------|---------|---------|---------------|---------|---------|---------|----------------------------|
B|---------|---------|---------|---------------|---------|---------|---------|----------------9----9------|
G|---------|---------|-2-------|-5------7------|---------|---------|---------|-----------9----------------|
D|-2-------|-5-------|-2-------|-5------7------|-2-------|-2-------|-2-------|------9---------------------|
A|-2-------|-5-------|-0-------|-3------5------|-2-------|-2-------|-2-------|-7--------------------------|
E|-0-------|-3-------|---------|---------------|-0-------|-0-------|-0-------|----------------------------|
Guns N' Roses - Sweet Child O ' mine (3)
Guns N' Roses - Sweet Child O_' mine (3).gp3