Guns N' Roses - Sweet Child O ' Mine (Live Era '87- '93)

Guns N Roses



Title: Sweet Child O' Mine (Live)
Album: Live Era '87-'93
Artist: Guns N' Roses
Author: W. Axl Rose, Slash, Izzy Stradlin', Duff "Rose" McKagen and Steven Adler

Track 1: Guitar 1 (Slash)
D#|---------|---------------------15--------14--------|---------------------15--------14--------|
A#|---------|------15---------------------------------|------15---------------------------------|
F#|-%-------|-----------14---12--------14--------14---|-----------14---12--------14--------14---|
C#|-%-------|-12--------------------------------------|-12--------------------------------------|
G#|---------|-----------------------------------------|-----------------------------------------|
D#|---------|-----------------------------------------|-----------------------------------------|

D#|---------------------15--------14--------|---------------------15--------14--------|
A#|------15---------------------------------|------15---------------------------------|
F#|-----------14---12--------14--------14---|-----------14---12--------14--------14---|
C#|-14--------------------------------------|-14--------------------------------------|
G#|-----------------------------------------|-----------------------------------------|
D#|-----------------------------------------|-----------------------------------------|

D#|---------------------15--------14--------|---------------------15--------14--------|
A#|------15---------------------------------|------15---------------------------------|
F#|-12--------14---12--------14--------14---|-12--------14---12--------14--------14---|
C#|-----------------------------------------|-----------------------------------------|
G#|-----------------------------------------|-----------------------------------------|
D#|-----------------------------------------|-----------------------------------------|

D#|---------------------15--------14--------|---------------------15--------14--------|
A#|------15---------------------------------|------15---------------------------------|
F#|-----------14---12--------14--------14---|-----------14---12--------14--------14---|
C#|-12--------------------------------------|-12--------------------------------------|
G#|-----------------------------------------|-----------------------------------------|
D#|-----------------------------------------|-----------------------------------------|

D#|---------------------15--------14--------|---------------------15--------14--------|
A#|------15---------------------------------|------15---------------------------------|
F#|-----------14---12--------14--------14---|-----------14---12--------14--------14---|
C#|-12--------------------------------------|-12--------------------------------------|
G#|-----------------------------------------|-----------------------------------------|
D#|-----------------------------------------|-----------------------------------------|

D#|---------------------15--------14--------|---------------------15--------14--------|
A#|------15---------------------------------|------15---------------------------------|
F#|-----------14---12--------14--------14---|-----------14---12--------14--------14---|
C#|-14--------------------------------------|-14--------------------------------------|
G#|-----------------------------------------|-----------------------------------------|
D#|-----------------------------------------|-----------------------------------------|

D#|---------------------15--------14--------|---------------------15--------14--------|
A#|------15---------------------------------|------15---------------------------------|
F#|-12--------14---12--------14--------14---|-12--------14---12--------14--------14---|
C#|-----------------------------------------|-----------------------------------------|
G#|-----------------------------------------|-----------------------------------------|
D#|-----------------------------------------|-----------------------------------------|

D#|---------------------15--------14--------|---------------------15--------14--------|
A#|------15---------------------------------|------15---------------------------------|
F#|-----------14---12--------14--------14---|-----------14---12--------14--------14---|
C#|-12--------------------------------------|-12--------------------------------------|
G#|-----------------------------------------|-----------------------------------------|
D#|-----------------------------------------|-----------------------------------------|

D#|---------------------15--------14--------|---------------------15--------14--------|
A#|------15---------------------------------|------15---------------------------------|
F#|-----------14---12--------14--------14---|-----------14---12--------14--------14---|
C#|-12--------------------------------------|-12--------------------------------------|
G#|-----------------------------------------|-----------------------------------------|
D#|-----------------------------------------|-----------------------------------------|

D#|---------------------15--------14--------|---------------------15--------14--------|
A#|------15---------------------------------|------15---------------------------------|
F#|-----------14---12--------14--------14---|-----------14---12--------14--------14---|
C#|-14--------------------------------------|-14--------------------------------------|
G#|-----------------------------------------|-----------------------------------------|
D#|-----------------------------------------|-----------------------------------------|

D#|---------------------15--------14--------|---------------------15--------14--------|
A#|------15---------------------------------|------15---------------------------------|
F#|-12--------14---12--------14--------14---|-12--------14---12--------14--------14---|
C#|-----------------------------------------|-----------------------------------------|
G#|-----------------------------------------|-----------------------------------------|
D#|-----------------------------------------|-----------------------------------------|

D#|-12------------------12--------14--------|-15--------14--------12------------------|
A#|-----------15----------------------------|-------------------------------15--------|
F#|------14--------14--------14--------14---|------14--------14--------14--------14---|
C#|-----------------------------------------|-----------------------------------------|
G#|-----------------------------------------|-----------------------------------------|
D#|-----------------------------------------|-----------------------------------------|

D#|---------|---------|------10---8---------10---8----------|-8-------|---------------------5---------------|
A#|-15------|-15------|----------------8--------------8-----|---------|------8--------------------8---------|
F#|-14------|-14------|-------------------------------------|---------|-----------7--------------------7----|
C#|---------|---------|-10----------------------------------|---------|-5--------------5--------------------|
G#|---------|---------|-------------------------------------|---------|-------------------------------------|
D#|---------|---------|-------------------------------------|---------|-------------------------------------|

D#|-------------------------------------|----------------5------------------------|
A#|------8----------8-------------------|-----------7---------7--------------7----|
F#|-7---------7----------7---------7----|------7-------------------7--------------|
C#|---------------------------5---------|-----------------------------------------|
G#|-------------------------------------|-5-----------------------------5---------|
D#|-------------------------------------|-----------------------------------------|

D#|-----------------5-------------------|-2------2----2--------------2----|-2--------------2----3-------------------|
A#|------7---------------7--------------|-3----------------3--------------|------3-------------------3----5----3----|
F#|-7----------7--------------7----4----|-2---------------------2---------|-----------2-----------------------------|
C#|---------------------------7----5----|-0-------------------------------|-----------------------------------------|
G#|-------------------------------------|---------------------------------|-----------------------------------------|
D#|-------------------------------------|---------------------------------|-----------------------------------------|

D#|------------------------------------0----|-0---------------------------------------|
A#|----------------3----3-------------------|------3--------------3--------------3----|
F#|------0-------------------0--------------|-----------0--------------0--------------|
C#|-----------2-------------------2---------|----------------2--------------2----0----|
G#|-3---------------------------------------|-----------------------------------------|
D#|-----------------------------------------|-----------------------------------------|

D#|----------------------------0----|-0---------------------------------------|-2-----------2--------------3----|
A#|-------------3-------------------|------3-------------------3--------------|-3-----3----------3--------------|
F#|-------0----------0--------------|-----------0-------------------0---------|-2---------------------2---------|
C#|---------------------------------|----------------0-------------------0----|-0-------------------------------|
G#|-2---------------------2---------|---------------------2-------------------|---------------------------------|
D#|-3-------------------------------|-----------------------------------------|---------------------------------|

D#|-3----2--------------------------|-----------------------------------------|---------------------12--------10--------|
A#|-----------3---------3-----------|------14-------------15--------14--------|------13---------------------------------|
F#|----------------2----2-----------|-----------14-------------14--------14---|-----------12---10--------12--------12---|
C#|---------------------0-----0-----|-11-------------14-----------------------|-10--------------------------------------|
G#|---------------------------------|-----------------------------------------|-----------------------------------------|
D#|---------------------------------|-----------------------------------------|-----------------------------------------|

D#|---------------------15--------14--------|---------------------15--------14--------|
A#|------15---------------------------------|------15---------------------------------|
F#|-----------14---12--------14--------14---|-----------14---12--------14--------14---|
C#|-12--------------------------------------|-12--------------------------------------|
G#|-----------------------------------------|-----------------------------------------|
D#|-----------------------------------------|-----------------------------------------|

D#|-----------------------------------------|---------------------12--------10--------|
A#|------14-------------15--------14--------|------13---------------------------------|
F#|-----------14-------------14--------14---|-----------12---10--------12--------12---|
C#|-11-------------14-----------------------|-10--------------------------------------|
G#|-----------------------------------------|-----------------------------------------|
D#|-----------------------------------------|-----------------------------------------|

D#|--------------------|-------------------|-------------------------|-------------------------|
A#|------15-----15-----|-15----------------|-------------------------|-------------------------|
F#|-14---14-----14-----|-14-----------14---|-12-----------------14---|-12-----------------14---|
C#|--------------------|---------X---------|--------16---16----------|--------16---16----------|
G#|--------------------|-------------------|-------------------------|-------------------------|
D#|--------------------|-------------------|-------------------------|-------------------------|

D#|-------------------------|-------------------------|-------------------------------|
A#|-------------------------|-------------------------|-------------------------------|
F#|-12-----------------14---|-12-----------------14---|-12-----12---%----14--14--12---|
C#|--------14---14----------|--------14---14----------|-------------%-----------------|
G#|-------------------------|-------------------------|-------------------------------|
D#|-------------------------|-------------------------|-------------------------------|

D#|-----------------------------|---------|------------------------|----------------14---14-----|
A#|-------15---15-----15--------|---------|------------------------|-----------15---------------|
F#|-14--------------------------|---------|------------------------|------14--------------------|
C#|------------------------14---|-14------|-14-----14---14---14----|-12-------------------------|
G#|-----------------------------|---------|------------------------|----------------------------|
D#|-----------------------------|---------|------------------------|----------------------------|

D#|-14------------|------10---8--------------8---------8----|-10---8---------10---8---------10--------|
A#|-15------------|----------------8----8---------8---------|-----------8--------------8---------8----|
F#|-14-----%------|-----------------------------------------|-----------------------------------------|
C#|-12-----%------|-10--------------------------------------|-----------------------------------------|
G#|---------------|-----------------------------------------|-----------------------------------------|
D#|---------------|-----------------------------------------|-----------------------------------------|

D#|---------------------5---------------|-----------------5-------------------|----------------5------------------------|
A#|------8--------------------8---------|------8---------------8--------------|-----------7---------7--------------7----|
F#|-----------7--------------------7----|-7---------7---------------7---------|------7-------------------7--------------|
C#|-5--------------5--------------------|--------------------------------5----|-----------------------------------------|
G#|-------------------------------------|-------------------------------------|-5-----------------------------5---------|
D#|-------------------------------------|-------------------------------------|-----------------------------------------|

D#|-----------------5-------------------|------2---------2---------------2----|-2-------------------3----2--------------|
A#|------7---------------7--------------|-3---------3----------3--------------|------3---------3--------------3----3----|
F#|-7----7-----7--------------7----4----|-2-------------------------2---------|-----------2-------------------0----0----|
C#|---------------------------7----5----|-0-----------------------------------|-----------------------------------------|
G#|-------------------------------------|-------------------------------------|-----------------------------------------|
D#|-------------------------------------|-------------------------------------|-----------------------------------------|

D#|------------------------------------0----|-0---------------------------------------|
A#|----------------3----3-------------------|------3--------------3--------------3----|
F#|------0-------------------0--------------|-----------0--------------0---------X----|
C#|-2---------2-------------------2---------|----------------2--------------2----0----|
G#|-3---------------------------------------|-----------------------------------------|
D#|-----------------------------------------|-----------------------------------------|

D#|--------------------------------0----|-0-------------------0-------------------|
A#|------3---------3----------3---------|------3-------------------3---------3----|
F#|-----------0----------0--------------|-----------0-------------------0---------|
C#|-------------------------------------|----------------0------------------------|
G#|-2-----------------------------------|-----------------------------------------|
D#|-3-----------------------------------|-----------------------------------------|

D#|-0----2---------2-----2---------3----|-3----2--------------------------|-----------------------------------------|
A#|-3-------------------------3---------|-----------3---------3-----------|------14-------------15--------14--------|
F#|-2-----------------------------------|----------------2----2-----------|-----------14-------------14--------14---|
C#|-0---------0-------------------------|---------------------0-----0-----|-11-------------14-----------------------|
G#|-------------------------------------|---------------------------------|-----------------------------------------|
D#|-------------------------------------|---------------------------------|-----------------------------------------|

D#|---------------------12--------10--------|---------------------15--------14--------|
A#|------13---------------------------------|------15---------------------------------|
F#|-----------12---10--------12--------12---|-----------14---12--------14--------14---|
C#|-10--------------------------------------|-12--------------------------------------|
G#|-----------------------------------------|-----------------------------------------|
D#|-----------------------------------------|-----------------------------------------|

D#|---------------------15--------14--------|-----------------------------------------|
A#|------15---------------------------------|------14-------------15--------14--------|
F#|-----------14---12--------14--------14---|-----------14-------------14--------14---|
C#|-12--------------------------------------|-11-------------14-----------------------|
G#|-----------------------------------------|-----------------------------------------|
D#|-----------------------------------------|-----------------------------------------|

D#|---------------------12--------10--------|--------------------|-------------------|
A#|------13---------------------------------|------15-----15-----|-15----------------|
F#|-----------12---10--------12--------12---|-14---14-----14-----|-14-----------14---|
C#|-10--------------------------------------|--------------------|---------X---------|
G#|-----------------------------------------|--------------------|-------------------|
D#|-----------------------------------------|--------------------|-------------------|

D#|-------------------------|-------------------------|-------------------------|-------------------------|
A#|-------------------------|-------------------------|-------------------------|-------------------------|
F#|-12-----------------14---|-12-----------------14---|-12-----------------14---|-12-----------------14---|
C#|--------16---16----------|--------16---16----------|--------14---14----------|--------14---14----------|
G#|-------------------------|-------------------------|-------------------------|-------------------------|
D#|-------------------------|-------------------------|-------------------------|-------------------------|

D#|--------------------|---------------------------------|----------------------------|
A#|--------------------|---------------------------------|-------------15-------------|
F#|-12-----12-----12---|-12-----12---11---11--------11---|-11-----11--------11---11---|
C#|--------------------|-----------------------12--------|----------------------------|
G#|--------------------|---------------------------------|----------------------------|
D#|--------------------|---------------------------------|----------------------------|

D#|-------------------|-------------------------|---------------------------------|
A#|-------------------|-------------------------|----------------------15----15---|
F#|-11------X----14---|-12-----------------14---|-12----11---14---14--------------|
C#|-------------------|--------16---16----------|---------------------------------|
G#|-------------------|-------------------------|---------------------------------|
D#|-------------------|-------------------------|---------------------------------|

D#|-----------------------------|--------------------------------------|------------------------------------------|
A#|-13----13---17---17-----17---|-17----15----15----15----13---12--12--|-12---------------------------------------|
F#|-----------------------------|--------------------------------------|-------12------------------14---14---12---|
C#|-----------------------------|--------------------------------------|------------12---12---12------------------|
G#|-----------------------------|--------------------------------------|------------------------------------------|
D#|-----------------------------|--------------------------------------|------------------------------------------|

D#|---------------------------------|------17-----17-----|-17---------------------|
A#|-------15---15---15---------17---|-17---17-----17-----|-17---------------------|
F#|-14------------------------------|--------------------|--------------2----2----|
C#|-----------------------X---------|--------------------|--------------2----2----|
G#|-----------------------X---------|--------------------|--------------0----0----|
D#|-----------------------X---------|--------------------|--------15--------------|

D#|---------------------------------|---------------------------------|-2-------2----2----|
A#|---------------------------------|---------------------------------|-3-------3---------|
F#|-2-----2----2-----2----2----4----|-5----5----5----5-----5----5-----|-2-------2---------|
C#|-2-----2----2-----2----2----4----|-5----5----5----5-----5----5-----|-0-------0---------|
G#|-0-----0----0-----0----0----2----|-3----3----3----3-----3----3-----|-------------------|
D#|---------------------------------|---------------------------------|-------------------|

D#|-2--------------------------------------|---------------------------------|---------------------------------|
A#|-------3--------------------------------|---------------------------------|---------------------------------|
F#|------------2----0----------------------|-2-----%----2-----2----2----4----|-5-----5----5-----5----5----5----|
C#|----------------------4----0------------|-2-----%----2-----2----2----4----|-5-----5----5-----5----5----5----|
G#|--------------------------------3---3---|-0----------0-----0----0----2----|-3-----3----3-----3----3----3----|
D#|----------------------------------------|---------------------------------|---------------------------------|

D#|-2-------2----2---2---|-2-----2-----2-----2-----2-----2-----|---------------------------------|
A#|-3-------3----3---3---|-3-----3-----3-----3-----3-----3-----|---------------------------------|
F#|-2-------2----2---2---|-2-----2-----2-----2-----2-----2-----|-2-----2----2-----2----2----4----|
C#|-0-------0----0---0---|-0-----0-----0-----0-----0-----0-----|-2-----2----2-----2----2----4----|
G#|----------------------|-------------------------------------|-0-----0----0-----0----0----2----|
D#|----------------------|-------------------------------------|---------------------------------|

D#|---------------------------------|-2-------2----2----|-2--------------------------------------|
A#|---------------------------------|-3-------3---------|-------3--------------------------------|
F#|-5-----5----5-----5----5----5----|-2-------2---------|------------2----0----------------------|
C#|-5-----5----5-----5----5----5----|-0-------0---------|----------------------4----0------------|
G#|-3-----3----3-----3----3----3----|-------------------|--------------------------------3---3---|
D#|---------------------------------|-------------------|----------------------------------------|

D#|-----------------------------|---------------------------------|----------------------------|
A#|-----------------------------|---------------------------------|----------------------------|
F#|-2-----%----2----2------4----|-5------5----5----5----5----5----|-7----7----7----7----7------|
C#|-2-----%----2----2------4----|-5------5----5----5----5----5----|-7----7----7----7----7------|
G#|-0----------0----0------2----|-3------3----3----3----3----3----|-5----5----5----5----5------|
D#|-----------------------------|---------------------------------|----------------------------|

D#|---------|-17-----17----17----15----|-14----15--14--------------15---|-14----15--14-----------------------14----|
A#|---------|--------------------------|---------------17---17----------|---------------17--16---16----17----------|
F#|-7-------|--------------------------|--------------------------------|------------------------------------------|
C#|-7-------|--------------------------|--------------------------------|------------------------------------------|
G#|-5-------|--------------------------|--------------------------------|------------------------------------------|
D#|---------|--------------------------|--------------------------------|------------------------------------------|

D#|------------------------------------|--------------------------------------|--------------------------------|
A#|-15----12---------------------------|----------------------------13---12---|-12----13--12--10---10---13-----|
F#|------------14----12---11---12--11--|-------------11---12---14-------------|--------------------------------|
C#|------------------------------------|-14-----14----------------------------|--------------------------------|
G#|------------------------------------|--------------------------------------|--------------------------------|
D#|------------------------------------|--------------------------------------|--------------------------------|

D#|-----------------------------|------------15---15---15----------------|--------------------------------|
A#|-13----12---12---12-----12---|-12-----------------------------7---7---|-7----------------------7---7---|
F#|-----------------------------|-------14------------------%------------|-------9----9----9--------------|
C#|-----------------------------|---------------------------%------------|--------------------------------|
G#|-----------------------------|----------------------------------------|--------------------------------|
D#|-----------------------------|----------------------------------------|--------------------------------|

D#|-----------------------------|-------------------------|---------------------------------|
A#|-7---------------------------|-------------------------|---------------------------------|
F#|-------9----9----9----8------|-8------11---11-----11---|-11----9-------------------------|
C#|-----------------------------|-------------------------|------------9----9----7-----9----|
G#|-----------------------------|-------------------------|---------------------------------|
D#|-----------------------------|-------------------------|---------------------------------|

D#|--------------------|-------------------------|----------------------------|-----------------------------7---8---11--12--9---11--12--14--11--12--|
A#|--------------------|-------------------------|----------------------------|-7---8---7-------7---8---10------------------------------------------|
F#|-9------9------11---|-11----9----9-----8------|-8------11----9-----8---9---|-------------9-------------------------------------------------------|
C#|--------------------|-------------------------|----------------------------|---------------------------------------------------------------------|
G#|--------------------|-------------------------|----------------------------|---------------------------------------------------------------------|
D#|--------------------|-------------------------|----------------------------|---------------------------------------------------------------------|

D#|-14--15--12--14--15---14---12-------14--11--12--14--12------12------|-----------------------------------|
A#|--------------------------------15----------------------15------15--|-15----15----15----15--15--12------|
F#|--------------------------------------------------------------------|-------------------------------14--|
C#|--------------------------------------------------------------------|-----------------------------------|
G#|--------------------------------------------------------------------|-----------------------------------|
D#|--------------------------------------------------------------------|-----------------------------------|

D#|------------------------------|---------------------|-------15---------------------------|
A#|-15----15-----15--------------|-17-----17-----17----|-17---------17---17----17--17--15---|
F#|------------------14--14--14--|---------------------|------------------------------------|
C#|------------------------------|---------------------|------------------------------------|
G#|------------------------------|---------------------|------------------------------------|
D#|------------------------------|---------------------|------------------------------------|

D#|--------------------------12-------------|----------------------------------------|
A#|-15--17----17---15---15--------15---12---|----------------------------------------|
F#|-----------------------------------------|-14--14---12--14----12--14----12---14---|
C#|-----------------------------------------|----------------------------------------|
G#|-----------------------------------------|----------------------------------------|
D#|-----------------------------------------|----------------------------------------|

D#|-------------------------------------------------------|-15-------15-------15-----------------------------------|
A#|----------------------------------15--------------15---|-15-------15-----------15-------------------------------|
F#|-14---14---12---14---12---14--14------14--14--12--14---|-14--14---14--14---14--14--14---12------14--12----------|
C#|-------------------------------------------------------|------------------------------------14----------14--12--|
G#|-------------------------------------------------------|--------------------------------------------------------|
D#|-------------------------------------------------------|--------------------------------------------------------|

D#|----------------------------------------------|----------------------------------------------|
A#|----------------------------------------------|----------------------------------------------|
F#|-12---------------------------12--14--12------|-12---------------------------12--14--12------|
C#|-------14--12--14---14---14---------------14--|-------14--12--14---14---14---------------14--|
G#|----------------------------------------------|----------------------------------------------|
D#|----------------------------------------------|----------------------------------------------|

D#|-----------------------------------------------------------------|-12--12----------15--15--12------14---12--14--12------12-------|
A#|---------------------------------12--12----------15--15--12--15--|---------15--12--------------15-------------------15------15---|
F#|-12--12----------14--14--12--14----------14--12------------------|---------------------------------------------------------------|
C#|---------14--12--------------------------------------------------|---------------------------------------------------------------|
G#|-----------------------------------------------------------------|---------------------------------------------------------------|
D#|-----------------------------------------------------------------|---------------------------------------------------------------|

D#|-----12--15--12-------12---------------12--15-------12----------|------12--15-------------------12--15--12------------------12------|
A#|-15-----------------------15--12--15--------------------15--12--|-15-----------12-------12--15--------------15--12------12------15--|
F#|-----------------14----------------------------14---------------|------------------14-------------------------------14--------------|
C#|----------------------------------------------------------------|-------------------------------------------------------------------|
G#|----------------------------------------------------------------|-------------------------------------------------------------------|
D#|----------------------------------------------------------------|-------------------------------------------------------------------|

D#|------15----15-----15---|-15----12--15--12------12-------------------------------------------|
A#|-12---15----15-----15---|-------------------15------15--12-----------------------------------|
F#|------------------------|-----------------------------------14--14-----------14--12----------|
C#|------------------------|--------------------------------------------14--12----------14--12--|
G#|------------------------|--------------------------------------------------------------------|
D#|------------------------|--------------------------------------------------------------------|

D#|------------------------|---------|--------------------|---------|---------------|
A#|------------------------|---------|--------------------|---------|---------------|
F#|-12---------------%-----|-%-------|-%------%-----------|---------|---------------|
C#|------14---14-----%-----|-%-------|-%------%----7------|-7-------|-7-------7-----|
G#|------------------------|---------|--------------------|---------|---------------|
D#|------------------------|---------|--------------------|---------|---------------|

D#|---------|--------------------|----------------------|-------------------------------|
A#|---------|-------------15-----|-15------15---15------|-------------------------------|
F#|-%-------|-%------%----14-----|-14------14---14--12--|-9---12--9----9------9----%----|
C#|-%-------|-%------%-----------|----------------------|--------------------------%----|
G#|---------|--------------------|----------------------|-------------------------------|
D#|---------|--------------------|----------------------|-------------------------------|

D#|---------|--------------------|------------------------------------|------------------------------------|
A#|---------|--------------15----|-15---15---12--15----15-----12--15--|-12----12---12---12----12--15--12---|
F#|-%-------|-%------%-----------|------------------------------------|------------------------------------|
C#|-%-------|-%------%-----------|------------------------------------|------------------------------------|
G#|---------|--------------------|------------------------------------|------------------------------------|
D#|---------|--------------------|------------------------------------|------------------------------------|

D#|-------------------------------------------------------------------------------|
A#|-12----12--15--12--15--12--15--12--15--12--15--12--15--12--15--12--15--12--15--|
F#|-------------------------------------------------------------------------------|
C#|-------------------------------------------------------------------------------|
G#|-------------------------------------------------------------------------------|
D#|-------------------------------------------------------------------------------|

D#|-------------------------------------------------------------------------------------------------|
A#|-12--15--12--15--12--15--12--15--12--15--12--15--12--15--12--15--12--15--12--15--12--15--12--15--|
F#|-------------------------------------------------------------------------------------------------|
C#|-------------------------------------------------------------------------------------------------|
G#|-------------------------------------------------------------------------------------------------|
D#|-------------------------------------------------------------------------------------------------|

D#|-------------------------------------------------------------------|---------------------------------------|
A#|-12--15--12--12--15--12--------------------------------------------|-15----15---15---15----15--15----------|
F#|-------------------------14---14---14--14--14--12--14--12------12--|-------------------------------14--12--|
C#|-----------------------------------------------------------14------|---------------------------------------|
G#|-------------------------------------------------------------------|---------------------------------------|
D#|-------------------------------------------------------------------|---------------------------------------|

D#|---------------------------------------|------------------------|------------------------------|
A#|-15----15---15---15----15--15----------|-17-----17---17----17---|-17-----17----17--17--15------|
F#|-------------------------------14--12--|------------------------|--------------------------16--|
C#|---------------------------------------|------------------------|------------------------------|
G#|---------------------------------------|------------------------|------------------------------|
D#|---------------------------------------|------------------------|------------------------------|

D#|----------------15----15---17---15---|-17--17--15------17--15----------15------15------------15---|
A#|-15--17----17------------------------|-------------17----------17--15-------17----17-15-17--------|
F#|-------------------------------------|------------------------------------------------------------|
C#|-------------------------------------|------------------------------------------------------------|
G#|-------------------------------------|------------------------------------------------------------|
D#|-------------------------------------|------------------------------------------------------------|

D#|-15----------15----------15-----------15----------15----------|-15-----------15-----------15----------15------15------15--|
A#|-----17--15------17--15-------17--15------17--15------17--15--|-----17--15-------17--15-------17--15------15--------------|
F#|--------------------------------------------------------------|---------------------------------------------------17------|
C#|--------------------------------------------------------------|-----------------------------------------------------------|
G#|--------------------------------------------------------------|-----------------------------------------------------------|
D#|--------------------------------------------------------------|-----------------------------------------------------------|

D#|--------------------------------------------|-----------------------------------------------------------------|
A#|--------------------------------------------|-------------------------12--11----------------------------------|
F#|-14----14--12--14-----------------12---14---|-14--14--12--15--15--12----------12--14--12--11--9---12--9---11--|
C#|-------------------14---14---14-------------|-----------------------------------------------------------------|
G#|--------------------------------------------|-----------------------------------------------------------------|
D#|--------------------------------------------|-----------------------------------------------------------------|

D#|--------------------------------------------|-------------------------------------|
A#|--------------------------------------------|-15----15----12----------------------|
F#|-11--9---11--9------------------------------|-------------------14----14----12----|
C#|-----------------12--9---9---10--9----------|-------------------------------------|
G#|-------------------------------------12-----|-------------------------------------|
D#|--------------------------------------------|-------------------------------------|

D#|---------12-------------|------------------------------------|-------------------|
A#|-15-----------15---12---|------------------------------------|-------------------|
F#|------------------------|-14--14--14---14---14-----14--------|-------------------|
C#|------------------------|-------------------------------14---|-14------14---14---|
G#|------------------------|------------------------------------|-------------------|
D#|------------------------|------------------------------------|-------------------|

D#|-------------------------|---------------|---------------|---------|---------|------------------------|
A#|-------------------------|---------------|---------------|---------|---------|------------------------|
F#|-------------------------|---------------|---------------|---------|---------|------%----%-----%------|
C#|-9------9----5-----------|---------------|---------------|---------|---------|-2----%----%-----%------|
G#|--------------------10---|-7------2------|---------------|---------|---------|-2----------------------|
D#|-------------------------|---------------|-5------3------|-0-------|-0-------|-0----------------------|
Guns N' Roses - Sweet Child O ' Mine (Live Era '87- '93)
Guns N' Roses - Sweet Child O_' Mine (Live Era _'87-_'93).gp3