Guns N' Roses - The Garden

Guns N Roses



Title: The Garden
Album: 
Artist: 
Author: Guns'N'Roses-West Arkeen-Del James-Axl Rose

Track 1: Acoustic Guitar
D#|----------------------------------|--------------2----2---2--------2---------------------------|
A#|----------------------------------|--------------1----1---1--------1---------------------------|
F#|-%-----%--------------------------|--------------2----2---2--------2---%-----------------------|
C#|-%-----%--------------------------|-4---0--------0------------0--------%-----------------------|
G#|--------------3---5---3-------0---|----------------------------------------3---5---3-------0---|
C#|--------------------------6-------|---------0------------------------------------------6-------|

D#|--------------2-----2--------2---------------------------|--------------------0---0--------------------------------|
A#|--------------0-----0--------0---------------------------|--------------3-----3---3----3---------------------------|
F#|--------------2-----2--------2---%-----------------------|--------------3--------------3---%-----------------------|
C#|-3---0--------0------------------%-----------------------|-3---0--------0--------------0---%-----------------------|
G#|------------------------0------------3---5---3-------0---|-------------------------------------3---5---3-------0---|
C#|---------0---------------------------------------6-------|---------0---------------------------------------6-------|

D#|--------------2----2---2--------2---------------------------|--------------2----2---2--------2---------------------------|
A#|--------------1----1---1--------1---------------------------|--------------1----1---1--------1---------------------------|
F#|--------------2----2---2--------2---%-----------------------|--------------2----2---2--------2---%-----------------------|
C#|-4---0--------0------------0--------%-----------------------|-4---0--------0------------0--------%-----------------------|
G#|----------------------------------------3---5---3-------0---|----------------------------------------3---5---3-------0---|
C#|---------0------------------------------------------6-------|---------0------------------------------------------6-------|

D#|--------------2-----2--------2---------------------------|--------------------0---2-----------------------------|
A#|--------------0-----0--------0---------------------------|--------------3-----3---3----3------------------------|
F#|--------------2-----2--------2---%-----------------------|--------------3--------------3------------------------|
C#|-3---0--------0------------------%-----------------------|-3---0--------0--------------0------------------------|
G#|------------------------0------------3---5---3-------0---|----------------------------------3---5---3-------0---|
C#|---------0---------------------------------------6-------|---------0------------------------------------6-------|

D#|--------------2----2---2--------2---------------------------|--------------2----2---2--------2---------------------------|
A#|--------------1----1---1--------1---------------------------|--------------1----1---1--------1---------------------------|
F#|--------------2----2---2--------2---%-----------------------|--------------2----2---2--------2---%-----------------------|
C#|-4---0--------0------------0--------%-----------------------|-4---0--------0------------0--------%-----------------------|
G#|----------------------------------------3---5---3-------0---|----------------------------------------3---5---3-------0---|
C#|---------0------------------------------------------6-------|---------0------------------------------------------6-------|

D#|--------------2-----2--------2---------------------------|--------------------0---0--------------------------------|
A#|--------------0-----0--------0---------------------------|--------------3-----3---3----3---------------------------|
F#|--------------2-----2--------2---%-----------------------|--------------3--------------3---%-----------------------|
C#|-3---0--------0------------------%-----------------------|-3---0--------0--------------0---%-----------------------|
G#|------------------------0------------3---5---3-------0---|-------------------------------------3---5---3-------0---|
C#|---------0---------------------------------------6-------|---------0---------------------------------------6-------|

D#|--------------2----2---2--------2---------------------------|--------------2----2---2--------2---------------------------|
A#|--------------1----1---1--------1---------------------------|--------------1----1---1--------1---------------------------|
F#|--------------2----2---2--------2---%-----------------------|--------------2----2---2--------2---%-----------------------|
C#|-4---0--------0------------0--------%-----------------------|-4---0--------0------------0--------%-----------------------|
G#|----------------------------------------3---5---3-------0---|----------------------------------------3---5---3-------0---|
C#|---------0------------------------------------------6-------|---------0------------------------------------------6-------|

D#|--------------2-----2--------2---------------------------|--------------------0---0--------------------------------|
A#|--------------0-----0--------0---------------------------|--------------3-----3---3----3---------------------------|
F#|--------------2-----2--------2---%-----------------------|--------------3--------------3---%-----------------------|
C#|-3---0--------0------------------%-----------------------|-3---0--------0--------------0---%-----------------------|
G#|------------------------0------------3---5---3-------0---|-------------------------------------3---5---3-------0---|
C#|---------0---------------------------------------6-------|---------0---------------------------------------6-------|

D#|--------------2----2---2--------2---------------------------|--------------2----2---2--------2---------------------------|
A#|--------------1----1---1--------1---------------------------|--------------1----1---1--------1---------------------------|
F#|--------------2----2---2--------2---%-----------------------|--------------2----2---2--------2---%-----------------------|
C#|-4---0--------0------------0--------%-----------------------|-4---0--------0------------0--------%-----------------------|
G#|----------------------------------------3---5---3-------0---|----------------------------------------3---5---3-------0---|
C#|---------0------------------------------------------6-------|---------0------------------------------------------6-------|

D#|--------------2-----2--------2---------------------------|--------------------0---0--------------------------------|
A#|--------------0-----0--------0---------------------------|--------------3-----3---3----3---------------------------|
F#|--------------2-----2--------2---%-----------------------|--------------3--------------3---%-----------------------|
C#|-3---0--------0------------------%-----------------------|-3---0--------0--------------0---%-----------------------|
G#|------------------------0------------3---5---3-------0---|-------------------------------------3---5---3-------0---|
C#|---------0---------------------------------------6-------|---------0---------------------------------------6-------|

D#|--------------2-----2---2-----------|---------|---------|---------|---------|---------|
A#|--------------1-----1---1----1------|---------|---------|---------|---------|---------|
F#|--------------2-----2---2----2------|-%-------|-%-------|-%-------|-%-------|-%-------|
C#|-4---0--------0--------------0------|-%-------|-%-------|-%-------|-%-------|-%-------|
G#|------------------------------------|---------|---------|---------|---------|---------|
C#|---------0--------------------------|---------|---------|---------|---------|---------|

D#|---------|---------|---------|---------|---------|---------|---------|---------|
A#|---------|---------|---------|---------|---------|---------|---------|---------|
F#|-%-------|-%-------|-%-------|-%-------|-%-------|-%-------|-%-------|-%-------|
C#|-%-------|-%-------|-%-------|-%-------|-%-------|-%-------|-%-------|-%-------|
G#|---------|---------|---------|---------|---------|---------|---------|---------|
C#|---------|---------|---------|---------|---------|---------|---------|---------|

D#|---------|---------|---------|---------|---------|---------|---------|---------|
A#|---------|---------|---------|---------|---------|---------|---------|---------|
F#|-%-------|-%-------|-%-------|-%-------|-%-------|-%-------|-%-------|-%-------|
C#|-%-------|-%-------|-%-------|-%-------|-%-------|-%-------|-%-------|-%-------|
G#|---------|---------|---------|---------|---------|---------|---------|---------|
C#|---------|---------|---------|---------|---------|---------|---------|---------|

D#|---------|---------|---------|---------|---------|---------|---------|---------|
A#|---------|---------|---------|---------|---------|---------|---------|---------|
F#|-%-------|-%-------|-%-------|-%-------|-%-------|-%-------|-%-------|-%-------|
C#|-%-------|-%-------|-%-------|-%-------|-%-------|-%-------|-%-------|-%-------|
G#|---------|---------|---------|---------|---------|---------|---------|---------|
C#|---------|---------|---------|---------|---------|---------|---------|---------|

D#|---------|---------|---------|---------|---------|---------|---------|---------|
A#|---------|---------|---------|---------|---------|---------|---------|---------|
F#|-%-------|-%-------|-%-------|-%-------|-%-------|-%-------|-%-------|-%-------|
C#|-%-------|-%-------|-%-------|-%-------|-%-------|-%-------|-%-------|-%-------|
G#|---------|---------|---------|---------|---------|---------|---------|---------|
C#|---------|---------|---------|---------|---------|---------|---------|---------|

D#|---------|---------|-2----2----2-----2---2---2-------------------------|--------------2----2---2--------2---------------------------|
A#|---------|---------|-1----1----1-----1---1---1-------------------------|--------------1----1---1--------1---------------------------|
F#|-%-------|-%-------|-2----2----2-----2---2---2-------------------------|--------------2----2---2--------2---%-----------------------|
C#|-%-------|-%-------|-0----0----0-----0---0---0-------------------------|-4---0--------0------------0--------%-----------------------|
G#|---------|---------|-------------------------------3---5---3-------0---|----------------------------------------3---5---3-------0---|
C#|---------|---------|-------------------------------------------6-------|---------0------------------------------------------6-------|

D#|--------------2-----2--------2---------------------------|--------------------0---0--------------------------------|
A#|--------------0-----0--------0---------------------------|--------------3-----3---3----3---------------------------|
F#|--------------2-----2--------2---%-----------------------|--------------3--------------3---%-----------------------|
C#|-3---0--------0------------------%-----------------------|-3---0--------0--------------0---%-----------------------|
G#|------------------------0------------3---5---3-------0---|-------------------------------------3---5---3-------0---|
C#|---------0---------------------------------------6-------|---------0---------------------------------------6-------|

D#|--------------2----2---2--------2---------------------------|--------------2----2---2--------2---------------------------|
A#|--------------1----1---1--------1---------------------------|--------------1----1---1--------1---------------------------|
F#|--------------2----2---2--------2---%-----------------------|--------------2----2---2--------2---%-----------------------|
C#|-4---0--------0------------0--------%-----------------------|-4---0--------0------------0--------%-----------------------|
G#|----------------------------------------3---5---3-------0---|----------------------------------------3---5---3-------0---|
C#|---------0------------------------------------------6-------|---------0------------------------------------------6-------|

D#|--------------2-----2--------2---------------------------|--------------------0---0--------------------------------|
A#|--------------0-----0--------0---------------------------|--------------3-----3---3----3---------------------------|
F#|--------------2-----2--------2---%-----------------------|--------------3--------------3---%-----------------------|
C#|-3---0--------0------------------%-----------------------|-3---0--------0--------------0---%-----------------------|
G#|------------------------0------------3---5---3-------0---|-------------------------------------3---5---3-------0---|
C#|---------0---------------------------------------6-------|---------0---------------------------------------6-------|

D#|--------------2----2---2--------2---------------------------|---------|---------|
A#|--------------1----1---1--------1---------------------------|---------|---------|
F#|--------------2----2---2--------2---%-----------------------|-%-------|-%-------|
C#|-4---0--------0------------0--------%-----------------------|-%-------|-%-------|
G#|----------------------------------------3---5---3-------0---|---------|---------|
C#|---------0------------------------------------------6-------|---------|---------|

D#|---------|---------|---------|---------|---------|---------|---------|---------|
A#|---------|---------|---------|---------|---------|---------|---------|---------|
F#|-%-------|-%-------|-%-------|-%-------|-%-------|-%-------|-%-------|-%-------|
C#|-%-------|-%-------|-%-------|-%-------|-%-------|-%-------|-%-------|-%-------|
G#|---------|---------|---------|---------|---------|---------|---------|---------|
C#|---------|---------|---------|---------|---------|---------|---------|---------|

D#|---------|---------|---------|---------|---------|---------|---------|---------|
A#|---------|---------|---------|---------|---------|---------|---------|---------|
F#|-%-------|-%-------|-%-------|-%-------|-%-------|-%-------|-%-------|-%-------|
C#|-%-------|-%-------|-%-------|-%-------|-%-------|-%-------|-%-------|-%-------|
G#|---------|---------|---------|---------|---------|---------|---------|---------|
C#|---------|---------|---------|---------|---------|---------|---------|---------|

D#|---------|---------|---------|---------|---------|---------|---------|---------|
A#|---------|---------|---------|---------|---------|---------|---------|---------|
F#|-%-------|-%-------|-%-------|-%-------|-%-------|-%-------|-%-------|-%-------|
C#|-%-------|-%-------|-%-------|-%-------|-%-------|-%-------|-%-------|-%-------|
G#|---------|---------|---------|---------|---------|---------|---------|---------|
C#|---------|---------|---------|---------|---------|---------|---------|---------|

D#|---------|---------|---------|---------|---------|---------|---------|---------|
A#|---------|---------|---------|---------|---------|---------|---------|---------|
F#|-%-------|-%-------|-%-------|-%-------|-%-------|-%-------|-%-------|-%-------|
C#|-%-------|-%-------|-%-------|-%-------|-%-------|-%-------|-%-------|-%-------|
G#|---------|---------|---------|---------|---------|---------|---------|---------|
C#|---------|---------|---------|---------|---------|---------|---------|---------|

D#|---------|---------|---------|---------|---------|
A#|---------|---------|---------|---------|---------|
F#|-%-------|-%-------|-%-------|-%-------|-%-------|
C#|-%-------|-%-------|-%-------|-%-------|-%-------|
G#|---------|---------|---------|---------|---------|
C#|---------|---------|---------|---------|---------|
Guns N' Roses - The Garden
Guns N' Roses - The Garden.gp3